  0
SECTION
  2
HEADER
  9
$ACADVER
  1
AC1018
  9
$ACADMAINTVER
 70
   104
  9
$DWGCODEPAGE
  3
ANSI_1252
  9
$CUSTOMPROPERTYTAG
  1
Manager
  9
$CUSTOMPROPERTY
  1

  9
$CUSTOMPROPERTYTAG
  1
Company
  9
$CUSTOMPROPERTY
  1

  9
$CUSTOMPROPERTYTAG
  1
Category
  9
$CUSTOMPROPERTY
  1

  9
$CUSTOMPROPERTYTAG
  1
Part Number
  9
$CUSTOMPROPERTY
  1
0222-215254
  9
$CUSTOMPROPERTYTAG
  1
Description
  9
$CUSTOMPROPERTY
  1
Urinaldruckspüler DN15
  9
$CUSTOMPROPERTYTAG
  1
Project
  9
$CUSTOMPROPERTY
  1

  9
$CUSTOMPROPERTYTAG
  1
Designer
  9
$CUSTOMPROPERTY
  1

  9
$CUSTOMPROPERTYTAG
  1
Engineer
  9
$CUSTOMPROPERTY
  1

  9
$CUSTOMPROPERTYTAG
  1
Authority
  9
$CUSTOMPROPERTY
  1

  9
$CUSTOMPROPERTYTAG
  1
Cost Center
  9
$CUSTOMPROPERTY
  1

  9
$CUSTOMPROPERTYTAG
  1
Vendor
  9
$CUSTOMPROPERTY
  1

  9
$CUSTOMPROPERTYTAG
  1
User Status
  9
$CUSTOMPROPERTY
  1

  9
$CUSTOMPROPERTYTAG
  1
Design Status
  9
$CUSTOMPROPERTY
  1
WorkInProgress
  9
$CUSTOMPROPERTYTAG
  1
Checked by
  9
$CUSTOMPROPERTY
  1

  9
$CUSTOMPROPERTYTAG
  1
Engr Approved by
  9
$CUSTOMPROPERTY
  1

  9
$CUSTOMPROPERTYTAG
  1
Mfg Approved by
  9
$CUSTOMPROPERTY
  1

  9
$CUSTOMPROPERTYTAG
  1
Departement
  9
$CUSTOMPROPERTY
  1
FAR-Marketing
  9
$CUSTOMPROPERTYTAG
  1
Collection
  9
$CUSTOMPROPERTY
  1
AQUALINE
  9
$CUSTOMPROPERTYTAG
  1
Document_Number
  9
$CUSTOMPROPERTY
  1
0222-215254
  9
$CUSTOMPROPERTYTAG
  1
Unit
  9
$CUSTOMPROPERTY
  1
mm
  9
$CUSTOMPROPERTYTAG
  1
Scale
  9
$CUSTOMPROPERTY
  1
NTS
  9
$CUSTOMPROPERTYTAG
  1
Tolerance
  9
$CUSTOMPROPERTY
  1

  9
$CUSTOMPROPERTYTAG
  1
Drawn_By
  9
$CUSTOMPROPERTY
  1
Tafel
  9
$CUSTOMPROPERTYTAG
  1
Drawn_Date
  9
$CUSTOMPROPERTY
  1
11/25/2009
  9
$CUSTOMPROPERTYTAG
  1
Modified_By
  9
$CUSTOMPROPERTY
  1

  9
$CUSTOMPROPERTYTAG
  1
Revision_Index_1
  9
$CUSTOMPROPERTY
  1
A
  9
$CUSTOMPROPERTYTAG
  1
Revision_By_1
  9
$CUSTOMPROPERTY
  1
Lösch
  9
$CUSTOMPROPERTYTAG
  1
Revision_Memo_1
  9
$CUSTOMPROPERTY
  1

  9
$CUSTOMPROPERTYTAG
  1
Revision_Titel_1
  9
$CUSTOMPROPERTY
  1

  9
$CUSTOMPROPERTYTAG
  1
Status
  9
$CUSTOMPROPERTY
  1

  9
$CUSTOMPROPERTYTAG
  1
ECN
  9
$CUSTOMPROPERTY
  1

  9
$CUSTOMPROPERTYTAG
  1
Quantity
  9
$CUSTOMPROPERTY
  1

  9
$CUSTOMPROPERTYTAG
  1
EAN
  9
$CUSTOMPROPERTY
  1
7612982000638
  9
$CUSTOMPROPERTYTAG
  1
FUN
  9
$CUSTOMPROPERTY
  1

  9
$CUSTOMPROPERTYTAG
  1
Part_number
  9
$CUSTOMPROPERTY
  1
25210222
  9
$CUSTOMPROPERTYTAG
  1
Title
  9
$CUSTOMPROPERTY
  1
Urinaldruckspüler DN15
  9
$CUSTOMPROPERTYTAG
  1
Auxiliary_Remark1
  9
$CUSTOMPROPERTY
  1
AQRM460
  9
$CUSTOMPROPERTYTAG
  1
Auxiliary_Remark2
  9
$CUSTOMPROPERTY
  1
Marketingzeichnung
  9
$CUSTOMPROPERTYTAG
  1
Checked_By
  9
$CUSTOMPROPERTY
  1
Lösch
  9
$CUSTOMPROPERTYTAG
  1
Checked_Date
  9
$CUSTOMPROPERTY
  1
07/01/2010
  9
$CUSTOMPROPERTYTAG
  1
Revision_Date_1
  9
$CUSTOMPROPERTY
  1
07/01/2010
  9
$INSBASE
 10
0.0
 20
0.0
 30
0.0
  9
$EXTMIN
 10
0.0
 20
0.0
 30
0.0
  9
$EXTMAX
 10
420.0
 20
594.0
 30
0.0
  9
$LIMMIN
 10
0.0
 20
0.0
  9
$LIMMAX
 10
420.0
 20
594.0
  9
$ORTHOMODE
 70
     0
  9
$REGENMODE
 70
     1
  9
$FILLMODE
 70
     1
  9
$QTEXTMODE
 70
     0
  9
$MIRRTEXT
 70
     0
  9
$LTSCALE
 40
2.0
  9
$ATTMODE
 70
     1
  9
$TEXTSIZE
 40
0.2
  9
$TRACEWID
 40
0.05
  9
$TEXTSTYLE
  7
Standard
  9
$CLAYER
  8
0
  9
$CELTYPE
  6
ByLayer
  9
$CECOLOR
 62
   256
  9
$CELTSCALE
 40
1.0
  9
$DISPSILH
 70
     0
  9
$DIMSCALE
 40
1.0
  9
$DIMASZ
 40
1.799999999999999
  9
$DIMEXO
 40
0.0625
  9
$DIMDLI
 40
0.38
  9
$DIMRND
 40
0.0
  9
$DIMDLE
 40
0.0
  9
$DIMEXE
 40
0.18
  9
$DIMTP
 40
0.0
  9
$DIMTM
 40
0.0
  9
$DIMTXT
 40
0.3048000037670135
  9
$DIMCEN
 40
0.09
  9
$DIMTSZ
 40
0.0
  9
$DIMTOL
 70
     0
  9
$DIMLIM
 70
     0
  9
$DIMTIH
 70
     1
  9
$DIMTOH
 70
     1
  9
$DIMSE1
 70
     0
  9
$DIMSE2
 70
     0
  9
$DIMTAD
 70
     0
  9
$DIMZIN
 70
     0
  9
$DIMBLK
  1

  9
$DIMASO
 70
     1
  9
$DIMSHO
 70
     1
  9
$DIMPOST
  1

  9
$DIMAPOST
  1

  9
$DIMALT
 70
     0
  9
$DIMALTD
 70
     2
  9
$DIMALTF
 40
25.4
  9
$DIMLFAC
 40
1.0
  9
$DIMTOFL
 70
     0
  9
$DIMTVP
 40
0.0
  9
$DIMTIX
 70
     0
  9
$DIMSOXD
 70
     0
  9
$DIMSAH
 70
     0
  9
$DIMBLK1
  1

  9
$DIMBLK2
  1

  9
$DIMSTYLE
  2
Standard
  9
$DIMCLRD
 70
     0
  9
$DIMCLRE
 70
     0
  9
$DIMCLRT
 70
     0
  9
$DIMTFAC
 40
1.0
  9
$DIMGAP
 40
0.09
  9
$DIMJUST
 70
     0
  9
$DIMSD1
 70
     0
  9
$DIMSD2
 70
     0
  9
$DIMTOLJ
 70
     1
  9
$DIMTZIN
 70
     0
  9
$DIMALTZ
 70
     0
  9
$DIMALTTZ
 70
     0
  9
$DIMUPT
 70
     0
  9
$DIMDEC
 70
     4
  9
$DIMTDEC
 70
     4
  9
$DIMALTU
 70
     2
  9
$DIMALTTD
 70
     2
  9
$DIMTXSTY
  7
Standard
  9
$DIMAUNIT
 70
     0
  9
$DIMADEC
 70
     0
  9
$DIMALTRND
 40
0.0
  9
$DIMAZIN
 70
     0
  9
$DIMDSEP
 70
    46
  9
$DIMATFIT
 70
     3
  9
$DIMFRAC
 70
     0
  9
$DIMLDRBLK
  1

  9
$DIMLUNIT
 70
     2
  9
$DIMLWD
 70
    -2
  9
$DIMLWE
 70
    -2
  9
$DIMTMOVE
 70
     0
  9
$LUNITS
 70
     2
  9
$LUPREC
 70
     4
  9
$SKETCHINC
 40
0.1
  9
$FILLETRAD
 40
0.0
  9
$AUNITS
 70
     0
  9
$AUPREC
 70
     0
  9
$MENU
  1
.
  9
$ELEVATION
 40
0.0
  9
$PELEVATION
 40
0.0
  9
$THICKNESS
 40
0.0
  9
$LIMCHECK
 70
     0
  9
$CHAMFERA
 40
0.0
  9
$CHAMFERB
 40
0.0
  9
$CHAMFERC
 40
0.0
  9
$CHAMFERD
 40
0.0
  9
$SKPOLY
 70
     0
  9
$TDCREATE
 40
2455644.493901135
  9
$TDUCREATE
 40
2455644.452234468
  9
$TDUPDATE
 40
2455644.493901135
  9
$TDUUPDATE
 40
2455644.452234468
  9
$TDINDWG
 40
0.0000260417
  9
$TDUSRTIMER
 40
0.0000260417
  9
$USRTIMER
 70
     1
  9
$ANGBASE
 50
0.0
  9
$ANGDIR
 70
     0
  9
$PDMODE
 70
     0
  9
$PDSIZE
 40
0.0
  9
$PLINEWID
 40
0.0
  9
$SPLFRAME
 70
     0
  9
$SPLINETYPE
 70
     6
  9
$SPLINESEGS
 70
     8
  9
$HANDSEED
  5
4C1
  9
$SURFTAB1
 70
     6
  9
$SURFTAB2
 70
     6
  9
$SURFTYPE
 70
     6
  9
$SURFU
 70
     6
  9
$SURFV
 70
     6
  9
$UCSBASE
  2

  9
$UCSNAME
  2

  9
$UCSORG
 10
0.0
 20
0.0
 30
0.0
  9
$UCSXDIR
 10
1.0
 20
0.0
 30
0.0
  9
$UCSYDIR
 10
0.0
 20
1.0
 30
0.0
  9
$UCSORTHOREF
  2

  9
$UCSORTHOVIEW
 70
     0
  9
$UCSORGTOP
 10
0.0
 20
0.0
 30
0.0
  9
$UCSORGBOTTOM
 10
0.0
 20
0.0
 30
0.0
  9
$UCSORGLEFT
 10
0.0
 20
0.0
 30
0.0
  9
$UCSORGRIGHT
 10
0.0
 20
0.0
 30
0.0
  9
$UCSORGFRONT
 10
0.0
 20
0.0
 30
0.0
  9
$UCSORGBACK
 10
0.0
 20
0.0
 30
0.0
  9
$PUCSBASE
  2

  9
$PUCSNAME
  2

  9
$PUCSORG
 10
0.0
 20
0.0
 30
0.0
  9
$PUCSXDIR
 10
1.0
 20
0.0
 30
0.0
  9
$PUCSYDIR
 10
0.0
 20
1.0
 30
0.0
  9
$PUCSORTHOREF
  2

  9
$PUCSORTHOVIEW
 70
     0
  9
$PUCSORGTOP
 10
0.0
 20
0.0
 30
0.0
  9
$PUCSORGBOTTOM
 10
0.0
 20
0.0
 30
0.0
  9
$PUCSORGLEFT
 10
0.0
 20
0.0
 30
0.0
  9
$PUCSORGRIGHT
 10
0.0
 20
0.0
 30
0.0
  9
$PUCSORGFRONT
 10
0.0
 20
0.0
 30
0.0
  9
$PUCSORGBACK
 10
0.0
 20
0.0
 30
0.0
  9
$USERI1
 70
     0
  9
$USERI2
 70
     0
  9
$USERI3
 70
     0
  9
$USERI4
 70
     0
  9
$USERI5
 70
     0
  9
$USERR1
 40
0.0
  9
$USERR2
 40
0.0
  9
$USERR3
 40
0.0
  9
$USERR4
 40
0.0
  9
$USERR5
 40
0.0
  9
$WORLDVIEW
 70
     1
  9
$SHADEDGE
 70
     3
  9
$SHADEDIF
 70
    70
  9
$TILEMODE
 70
     1
  9
$MAXACTVP
 70
    64
  9
$PINSBASE
 10
0.0
 20
0.0
 30
0.0
  9
$PLIMCHECK
 70
     0
  9
$PEXTMIN
 10
0.0
 20
0.0
 30
0.0
  9
$PEXTMAX
 10
420.0
 20
594.0
 30
0.0
  9
$PLIMMIN
 10
0.0
 20
0.0
  9
$PLIMMAX
 10
420.0
 20
594.0
  9
$UNITMODE
 70
     0
  9
$VISRETAIN
 70
     1
  9
$PLINEGEN
 70
     0
  9
$PSLTSCALE
 70
     1
  9
$TREEDEPTH
 70
  3020
  9
$CMLSTYLE
  2
Standard
  9
$CMLJUST
 70
     0
  9
$CMLSCALE
 40
1.0
  9
$PROXYGRAPHICS
 70
     1
  9
$MEASUREMENT
 70
     1
  9
$CELWEIGHT
370
    -1
  9
$ENDCAPS
280
     0
  9
$JOINSTYLE
280
     0
  9
$LWDISPLAY
290
     0
  9
$INSUNITS
 70
     4
  9
$HYPERLINKBASE
  1

  9
$STYLESHEET
  1

  9
$XEDIT
290
     1
  9
$CEPSNTYPE
380
     0
  9
$PSTYLEMODE
290
     1
  9
$FINGERPRINTGUID
  2
{049F5BFA-06A7-4ECA-9BC3-BCE0A903E6F0}
  9
$VERSIONGUID
  2
{4A8B34AE-3A5F-4862-84F0-EE1F35EBF1C2}
  9
$EXTNAMES
290
     1
  9
$PSVPSCALE
 40
0.0
  9
$OLESTARTUP
290
     0
  9
$SORTENTS
280
   127
  9
$INDEXCTL
280
     0
  9
$HIDETEXT
280
     1
  9
$XCLIPFRAME
290
     0
  9
$HALOGAP
280
     0
  9
$OBSCOLOR
 70
   257
  9
$OBSLTYPE
280
     0
  9
$INTERSECTIONDISPLAY
280
     0
  9
$INTERSECTIONCOLOR
 70
   257
  9
$DIMASSOC
280
     1
  9
$PROJECTNAME
  1

  0
ENDSEC
  0
SECTION
  2
CLASSES
  0
CLASS
  1
ACDBDICTIONARYWDFLT
  2
AcDbDictionaryWithDefault
  3
ObjectDBX Classes
 90
        0
 91
        1
280
     0
281
     0
  0
CLASS
  1
MATERIAL
  2
AcDbMaterial
  3
ObjectDBX Classes
 90
     1153
 91
        3
280
     0
281
     0
  0
CLASS
  1
VISUALSTYLE
  2
AcDbVisualStyle
  3
ObjectDBX Classes
 90
     4095
 91
       19
280
     0
281
     0
  0
CLASS
  1
SCALE
  2
AcDbScale
  3
ObjectDBX Classes
 90
     1153
 91
       33
280
     0
281
     0
  0
CLASS
  1
TABLESTYLE
  2
AcDbTableStyle
  3
ObjectDBX Classes
 90
     4095
 91
        1
280
     0
281
     0
  0
CLASS
  1
MLEADERSTYLE
  2
AcDbMLeaderStyle
  3
ACDB_MLEADERSTYLE_CLASS
 90
     4095
 91
        1
280
     0
281
     0
  0
CLASS
  1
DICTIONARYVAR
  2
AcDbDictionaryVar
  3
ObjectDBX Classes
 90
        0
 91
        8
280
     0
281
     0
  0
CLASS
  1
CELLSTYLEMAP
  2
AcDbCellStyleMap
  3
ObjectDBX Classes
 90
     1152
 91
        1
280
     0
281
     0
  0
ENDSEC
  0
SECTION
  2
TABLES
  0
TABLE
  2
VPORT
  5
8
330
0
100
AcDbSymbolTable
 70
     1
  0
VPORT
  5
62
330
8
100
AcDbSymbolTableRecord
100
AcDbViewportTableRecord
  2
*Active
 70
     0
 10
0.0
 20
0.0
 11
1.0
 21
1.0
 12
210.0
 22
297.0
 13
0.0
 23
0.0
 14
1.0
 24
1.0
 15
0.0
 25
0.0
 16
0.0
 26
0.0
 36
1.0
 17
0.0
 27
0.0
 37
0.0
 40
594.0
 41
0.7070707070707071
 42
50.0
 43
0.0
 44
0.0
 50
0.0
 51
0.0
 71
     0
 72
   100
 73
     1
 74
     1
 75
     0
 76
     0
 77
     0
 78
     0
281
     0
 65
     1
110
0.0
120
0.0
130
0.0
111
1.0
121
0.0
131
0.0
112
0.0
122
1.0
132
0.0
 79
     0
146
0.0
  0
ENDTAB
  0
TABLE
  2
LTYPE
  5
5
330
0
100
AcDbSymbolTable
 70
     1
  0
LTYPE
  5
66
330
5
100
AcDbSymbolTableRecord
100
AcDbLinetypeTableRecord
  2
ByBlock
 70
     0
  3

 72
    65
 73
     0
 40
0.0
  0
LTYPE
  5
67
330
5
100
AcDbSymbolTableRecord
100
AcDbLinetypeTableRecord
  2
ByLayer
 70
     0
  3

 72
    65
 73
     0
 40
0.0
  0
LTYPE
  5
68
330
5
100
AcDbSymbolTableRecord
100
AcDbLinetypeTableRecord
  2
Continuous
 70
     0
  3
Solid line
 72
    65
 73
     0
 40
0.0
  0
ENDTAB
  0
TABLE
  2
LAYER
  5
2
330
0
100
AcDbSymbolTable
 70
    82
  0
LAYER
  5
5F
330
2
100
AcDbSymbolTableRecord
100
AcDbLayerTableRecord
  2
0
 70
     0
 62
     7
  6
Continuous
370
    -3
390
F
  0
LAYER
  5
95
330
2
100
AcDbSymbolTableRecord
100
AcDbLayerTableRecord
  2
Centerline(ISO)
 70
     0
 62
     7
  6
Continuous
370
    25
390
F
  0
LAYER
  5
9B
330
2
100
AcDbSymbolTableRecord
100
AcDbLayerTableRecord
  2
Hatch
 70
     0
 62
     7
  6
Continuous
370
     9
390
F
  0
LAYER
  5
A5
330
2
100
AcDbSymbolTableRecord
100
AcDbLayerTableRecord
  2
MaSichtkante dünnFliese
 70
     0
 62
     7
  6
Continuous
370
    30
390
F
  0
LAYER
  5
A6
330
2
100
AcDbSymbolTableRecord
100
AcDbLayerTableRecord
  2
MaVisibleEdge
 70
     0
 62
     7
  6
Continuous
370
    50
390
F
  0
LAYER
  5
A7
330
2
100
AcDbSymbolTableRecord
100
AcDbLayerTableRecord
  2
MaVisibleEdge thinFlag
 70
     0
 62
     7
  6
Continuous
370
    30
390
F
  0
LAYER
  5
B6
330
2
100
AcDbSymbolTableRecord
100
AcDbLayerTableRecord
  2
Sketch Geometry(DIN)
 70
     0
 62
     7
  6
Continuous
370
    50
390
F
  0
LAYER
  5
B7
330
2
100
AcDbSymbolTableRecord
100
AcDbLayerTableRecord
  2
Sketch Geometry(ISO)
 70
     0
 62
     7
  6
Continuous
370
    50
390
F
  0
LAYER
  5
C1
330
2
100
AcDbSymbolTableRecord
100
AcDbLayerTableRecord
  2
Symbols(ISO)
 70
     0
 62
     7
  6
Continuous
370
    25
390
F
  0
LAYER
  5
C9
330
2
100
AcDbSymbolTableRecord
100
AcDbLayerTableRecord
  2
Visible Edges(DIN)
 70
     0
 62
     7
  6
Continuous
370
    50
390
F
  0
ENDTAB
  0
TABLE
  2
STYLE
  5
3
330
0
100
AcDbSymbolTable
 70
    22
  0
STYLE
  5
60
330
3
100
AcDbSymbolTableRecord
100
AcDbTextStyleTableRecord
  2
Standard
 70
     0
 40
0.0
 41
1.0
 50
0.0
 71
     0
 42
0.2
  3
monotxt.shx
  4

  0
STYLE
  5
65
330
3
100
AcDbSymbolTableRecord
100
AcDbTextStyleTableRecord
  2
Annotative
 70
     0
 40
0.0
 41
1.0
 50
0.0
 71
     0
 42
0.2
  3
txt
  4

1001
AcadAnnotative
1000
AnnotativeData
1002
{
1070
     1
1070
     1
1002
}
  0
STYLE
  5
D0
330
3
100
AcDbSymbolTableRecord
100
AcDbTextStyleTableRecord
  2
Current-DIN
 70
     0
 40
0.0
 41
1.0
 50
0.0
 71
     0
 42
0.2
  3
TAHOMA.TTF
  4

1001
ACAD
1000
Tahoma
1071
      256
  0
STYLE
  5
D1
330
3
100
AcDbSymbolTableRecord
100
AcDbTextStyleTableRecord
  2
Parts-List_2.0mm
 70
     0
 40
0.0
 41
0.899999976158142
 50
0.0
 71
     0
 42
0.2
  3
ARIAL.TTF
  4

1001
ACAD
1000
Arial
1071
      256
  0
STYLE
  5
D2
330
3
100
AcDbSymbolTableRecord
100
AcDbTextStyleTableRecord
  2
Parts-List_2.0mmByLayer
 70
     0
 40
0.0
 41
0.899999976158142
 50
0.0
 71
     0
 42
0.2
  3
ARIAL.TTF
  4

1001
ACAD
1000
Arial
1071
      256
  0
STYLE
  5
D3
330
3
100
AcDbSymbolTableRecord
100
AcDbTextStyleTableRecord
  2
Text__1.3mm
 70
     0
 40
0.0
 41
0.899999976158142
 50
0.0
 71
     0
 42
0.2
  3
ARIAL.TTF
  4

1001
ACAD
1000
Arial
1071
      256
  0
STYLE
  5
D4
330
3
100
AcDbSymbolTableRecord
100
AcDbTextStyleTableRecord
  2
Text__1.5mm
 70
     0
 40
0.0
 41
0.899999976158142
 50
0.0
 71
     0
 42
0.2
  3
ARIAL.TTF
  4

1001
ACAD
1000
Arial
1071
      256
  0
STYLE
  5
D5
330
3
100
AcDbSymbolTableRecord
100
AcDbTextStyleTableRecord
  2
Text__3.5mm
 70
     0
 40
0.0
 41
0.899999976158142
 50
0.0
 71
     0
 42
0.2
  3
ARIAL.TTF
  4

1001
ACAD
1000
Arial
1071
      256
  0
STYLE
  5
D6
330
3
100
AcDbSymbolTableRecord
100
AcDbTextStyleTableRecord
  2
Text__3.5mmBigText
 70
     0
 40
0.0
 41
0.899999976158142
 50
0.0
 71
     0
 42
0.2
  3
ARIAL.TTF
  4

1001
ACAD
1000
Arial
1071
      256
  0
STYLE
  5
D7
330
3
100
AcDbSymbolTableRecord
100
AcDbTextStyleTableRecord
  2
Text__3.5mmByLayer
 70
     0
 40
0.0
 41
0.899999976158142
 50
0.0
 71
     0
 42
0.2
  3
ARIAL.TTF
  4

1001
ACAD
1000
Arial
1071
      256
  0
STYLE
  5
D8
330
3
100
AcDbSymbolTableRecord
100
AcDbTextStyleTableRecord
  2
Text__4.0mm
 70
     0
 40
0.0
 41
0.899999976158142
 50
0.0
 71
     0
 42
0.2
  3
ARIAL.TTF
  4

1001
ACAD
1000
Arial
1071
      256
  0
STYLE
  5
D9
330
3
100
AcDbSymbolTableRecord
100
AcDbTextStyleTableRecord
  2
Text__5.0mm
 70
     0
 40
0.0
 41
0.899999976158142
 50
0.0
 71
     0
 42
0.2
  3
ARIAL.TTF
  4

1001
ACAD
1000
Arial
1071
      256
  0
STYLE
  5
DA
330
3
100
AcDbSymbolTableRecord
100
AcDbTextStyleTableRecord
  2
Text__5.0mmByLayer
 70
     0
 40
0.0
 41
0.899999976158142
 50
0.0
 71
     0
 42
0.2
  3
ARIAL.TTF
  4

1001
ACAD
1000
Arial
1071
      256
  0
STYLE
  5
DB
330
3
100
AcDbSymbolTableRecord
100
AcDbTextStyleTableRecord
  2
Text_2.5mm
 70
     0
 40
0.0
 41
0.899999976158142
 50
0.0
 71
     0
 42
0.2
  3
ARIAL.TTF
  4

1001
ACAD
1000
Arial
1071
      256
  0
STYLE
  5
DC
330
3
100
AcDbSymbolTableRecord
100
AcDbTextStyleTableRecord
  2
Text_3.5mm
 70
     0
 40
0.0
 41
0.899999976158142
 50
0.0
 71
     0
 42
0.2
  3
ARIAL.TTF
  4

1001
ACAD
1000
Arial
1071
      256
  0
STYLE
  5
DD
330
3
100
AcDbSymbolTableRecord
100
AcDbTextStyleTableRecord
  2
Text_5.0mm
 70
     0
 40
0.0
 41
0.899999976158142
 50
0.0
 71
     0
 42
0.2
  3
ARIAL.TTF
  4

1001
ACAD
1000
Arial
1071
      256
  0
STYLE
  5
DE
330
3
100
AcDbSymbolTableRecord
100
AcDbTextStyleTableRecord
  2
Text_5.0mmByLayer
 70
     0
 40
0.0
 41
0.899999976158142
 50
0.0
 71
     0
 42
0.2
  3
ARIAL.TTF
  4

1001
ACAD
1000
Arial
1071
      256
  0
STYLE
  5
103
330
3
100
AcDbSymbolTableRecord
100
AcDbTextStyleTableRecord
  2
Text Style49
 70
     0
 40
0.0
 41
0.899999976158142
 50
0.0
 71
     0
 42
0.2
  3
ARIAL.TTF
  4

1001
ACAD
1000
Arial
1071
      256
  0
STYLE
  5
242
330
3
100
AcDbSymbolTableRecord
100
AcDbTextStyleTableRecord
  2
Text Style20
 70
     0
 40
0.0
 41
1.0
 50
0.0
 71
     0
 42
0.2
  3
ARIAL.TTF
  4

1001
ACAD
1000
Arial
1071
      256
  0
STYLE
  5
244
330
3
100
AcDbSymbolTableRecord
100
AcDbTextStyleTableRecord
  2
Text Style9
 70
     0
 40
0.0
 41
1.0
 50
0.0
 71
     0
 42
0.2
  3
ARIAL.TTF
  4

1001
ACAD
1000
Arial
1071
      256
  0
STYLE
  5
247
330
3
100
AcDbSymbolTableRecord
100
AcDbTextStyleTableRecord
  2
Text Style38
 70
     0
 40
0.0
 41
1.0
 50
0.0
 71
     0
 42
0.2
  3
ARIAL.TTF
  4

1001
ACAD
1000
Arial
1071
      256
  0
STYLE
  5
24A
330
3
100
AcDbSymbolTableRecord
100
AcDbTextStyleTableRecord
  2
Text Style40
 70
     0
 40
0.0
 41
1.0
 50
0.0
 71
     0
 42
0.2
  3
ARIAL.TTF
  4

1001
ACAD
1000
Arial
1071
      256
  0
ENDTAB
  0
TABLE
  2
VIEW
  5
6
330
0
100
AcDbSymbolTable
 70
     0
  0
ENDTAB
  0
TABLE
  2
UCS
  5
7
330
0
100
AcDbSymbolTable
 70
     0
  0
ENDTAB
  0
TABLE
  2
APPID
  5
9
330
0
100
AcDbSymbolTable
 70
     4
  0
APPID
  5
61
330
9
100
AcDbSymbolTableRecord
100
AcDbRegAppTableRecord
  2
ACAD
 70
     0
  0
APPID
  5
69
330
9
100
AcDbSymbolTableRecord
100
AcDbRegAppTableRecord
  2
AcadAnnotative
 70
     0
  0
APPID
  5
107
330
9
100
AcDbSymbolTableRecord
100
AcDbRegAppTableRecord
  2
AcadAnnoPO
 70
     0
  0
APPID
  5
4C0
330
9
100
AcDbSymbolTableRecord
100
AcDbRegAppTableRecord
  2
ACAD_MLEADERVER
 70
     0
  0
ENDTAB
  0
TABLE
  2
DIMSTYLE
  5
A
330
0
100
AcDbSymbolTable
 70
    17
100
AcDbDimStyleTable
 71
     0
  0
DIMSTYLE
105
63
330
A
100
AcDbSymbolTableRecord
100
AcDbDimStyleTableRecord
  2
Standard
 70
     0
340
60
  0
DIMSTYLE
105
64
330
A
100
AcDbSymbolTableRecord
100
AcDbDimStyleTableRecord
  2
Annotative
 70
     0
340
60
1001
AcadAnnotative
1000
AnnotativeData
1002
{
1070
     1
1070
     1
1002
}
  0
DIMSTYLE
105
DF
330
A
100
AcDbSymbolTableRecord
100
AcDbDimStyleTableRecord
  2
KS-STANDARD
 70
     0
 40
2.0
 41
2.5
 42
0.0
 43
12.0
 44
3.174999999999999
 45
0.00000001
 46
10.0
 73
     0
 74
     0
 77
     1
 78
     8
 79
     2
140
3.5
143
0.03937
146
0.7142857142857144
147
0.8000000000000001
171
     3
172
     1
176
     7
177
     7
178
     7
271
     1
274
     3
278
    44
284
     8
286
     8
340
DC
371
    25
372
    25
  0
DIMSTYLE
105
E0
330
A
100
AcDbSymbolTableRecord
100
AcDbDimStyleTableRecord
  2
KS-STANDARD$7
 70
     0
 40
2.0
 41
2.5
 42
0.0
 43
12.0
 44
3.174999999999999
 45
0.00000001
 46
10.0
 73
     0
 74
     0
 77
     1
 78
     8
 79
     2
140
3.5
143
0.03937
146
0.7142857142857144
147
0.8000000000000001
171
     3
172
     1
176
     7
177
     7
178
     7
271
     1
274
     3
278
    44
284
     8
286
     8
340
DC
371
    25
372
    25
  0
DIMSTYLE
105
E1
330
A
100
AcDbSymbolTableRecord
100
AcDbDimStyleTableRecord
  2
KS-STANDARDBigText
 70
     0
 40
2.0
 41
5.0
 42
0.0
 43
12.0
 44
3.174999999999999
 45
0.00000001
 46
10.0
 73
     0
 74
     0
 77
     1
 78
     8
 79
     2
140
5.25
143
0.03937
146
0.4761904761904762
147
0.8000000000000001
171
     3
172
     1
176
     7
177
     7
178
     7
271
     1
274
     3
278
    44
284
     8
286
     8
340
D6
371
    25
372
    25
  0
DIMSTYLE
105
E2
330
A
100
AcDbSymbolTableRecord
100
AcDbDimStyleTableRecord
  2
KS-STANDARDBigText$7
 70
     0
 40
2.0
 41
5.0
 42
0.0
 43
12.0
 44
3.174999999999999
 45
0.00000001
 46
10.0
 73
     0
 74
     0
 77
     1
 78
     8
 79
     2
140
5.25
143
0.03937
146
0.4761904761904762
147
0.8000000000000001
171
     3
172
     1
176
     7
177
     7
178
     7
271
     1
274
     3
278
    44
284
     8
286
     8
340
D6
371
    25
372
    25
  0
DIMSTYLE
105
E3
330
A
100
AcDbSymbolTableRecord
100
AcDbDimStyleTableRecord
  2
MarketingDrawing
 70
     0
 40
2.0
 41
4.0
 42
2.0
 43
12.0
 44
2.0
 45
0.00000001
 46
10.0
 78
     8
 79
     2
140
4.0
143
0.03937
146
0.625
147
1.0
171
     3
176
     7
177
     7
178
     7
271
     0
274
     3
278
    44
284
     8
286
     8
340
D8
371
    25
372
    25
  0
DIMSTYLE
105
E4
330
A
100
AcDbSymbolTableRecord
100
AcDbDimStyleTableRecord
  2
MarketingDrawing$7
 70
     0
 40
2.0
 41
5.0
 42
2.0
 43
12.0
 44
2.0
 45
0.00000001
 46
10.0
 78
     8
 79
     2
140
4.0
143
0.03937
146
0.625
147
1.0
171
     3
176
     7
177
     7
178
     7
271
     0
274
     3
278
    44
284
     8
286
     8
340
D8
371
    25
372
    25
  0
DIMSTYLE
105
EF
330
A
100
AcDbSymbolTableRecord
100
AcDbDimStyleTableRecord
  2
Leader-Datum(DIN)
 70
     0
 40
2.0
 41
2.5
340
60
342
F0
  0
DIMSTYLE
105
F7
330
A
100
AcDbSymbolTableRecord
100
AcDbDimStyleTableRecord
  2
Leader-Datum(ISO)
 70
     0
 40
2.0
 41
2.5
340
60
342
F0
  0
DIMSTYLE
105
F8
330
A
100
AcDbSymbolTableRecord
100
AcDbDimStyleTableRecord
  2
Leader-Dot(DIN)
 70
     0
 40
2.0
 41
2.5
340
60
342
F0
  0
DIMSTYLE
105
F9
330
A
100
AcDbSymbolTableRecord
100
AcDbDimStyleTableRecord
  2
Leader-Dot(ISO)
 70
     0
 40
2.0
 41
2.5
340
60
342
F0
  0
DIMSTYLE
105
FA
330
A
100
AcDbSymbolTableRecord
100
AcDbDimStyleTableRecord
  2
Leader-Large(DIN)
 70
     0
 40
2.0
 41
5.0
340
60
342
F0
  0
DIMSTYLE
105
FB
330
A
100
AcDbSymbolTableRecord
100
AcDbDimStyleTableRecord
  2
Leader-OriginIndicator(DIN)
 70
     0
 40
2.0
 41
2.5
340
60
342
F0
  0
DIMSTYLE
105
FC
330
A
100
AcDbSymbolTableRecord
100
AcDbDimStyleTableRecord
  2
Leader-OriginIndicator(ISO)
 70
     0
 40
2.0
 41
2.5
340
60
342
F0
  0
DIMSTYLE
105
FD
330
A
100
AcDbSymbolTableRecord
100
AcDbDimStyleTableRecord
  2
Leader(DIN)
 70
     0
 40
2.0
 41
2.5
340
60
342
F0
  0
DIMSTYLE
105
FE
330
A
100
AcDbSymbolTableRecord
100
AcDbDimStyleTableRecord
  2
Leader(ISO)
 70
     0
 40
2.0
 41
2.5
340
60
342
F0
  0
ENDTAB
  0
TABLE
  2
BLOCK_RECORD
  5
1
330
0
100
AcDbSymbolTable
 70
    11
  0
BLOCK_RECORD
  5
77
330
1
100
AcDbSymbolTableRecord
100
AcDbBlockTableRecord
  2
*Model_Space
340
7A
  0
BLOCK_RECORD
  5
73
330
1
100
AcDbSymbolTableRecord
100
AcDbBlockTableRecord
  2
*Paper_Space
340
76
  0
BLOCK_RECORD
  5
7B
330
1
100
AcDbSymbolTableRecord
100
AcDbBlockTableRecord
  2
*Paper_Space0
340
7E
  0
BLOCK_RECORD
  5
E5
330
1
100
AcDbSymbolTableRecord
100
AcDbBlockTableRecord
  2
DatumFilled45
340
0
  0
BLOCK_RECORD
  5
F0
330
1
100
AcDbSymbolTableRecord
100
AcDbBlockTableRecord
  2
_Closed
340
0
  0
BLOCK_RECORD
  5
FF
330
1
100
AcDbSymbolTableRecord
100
AcDbBlockTableRecord
  2
Index
340
0
  0
BLOCK_RECORD
  5
108
330
1
100
AcDbSymbolTableRecord
100
AcDbBlockTableRecord
  2
AIR
340
0
  0
BLOCK_RECORD
  5
115
330
1
100
AcDbSymbolTableRecord
100
AcDbBlockTableRecord
  2
Zertifizierungszeichnung
340
0
  0
BLOCK_RECORD
  5
11D
330
1
100
AcDbSymbolTableRecord
100
AcDbBlockTableRecord
  2
Pfeil 1_1
340
0
  0
BLOCK_RECORD
  5
12F
330
1
100
AcDbSymbolTableRecord
100
AcDbBlockTableRecord
  2
TWK 1_1
340
0
  0
BLOCK_RECORD
  5
13D
330
1
100
AcDbSymbolTableRecord
100
AcDbBlockTableRecord
  2
TWW 1_1
340
0
  0
BLOCK_RECORD
  5
14D
330
1
100
AcDbSymbolTableRecord
100
AcDbBlockTableRecord
  2
Title Blocks WS-Marketing-FUN
340
0
102
{BLKREFS
331
259
102
}
  0
BLOCK_RECORD
  5
26E
330
1
100
AcDbSymbolTableRecord
100
AcDbBlockTableRecord
  2
Borders Planung Border
340
0
102
{BLKREFS
331
275
102
}
  0
ENDTAB
  0
ENDSEC
  0
SECTION
  2
BLOCKS
  0
BLOCK
  5
78
330
77
100
AcDbEntity
  8
0
100
AcDbBlockBegin
  2
*Model_Space
 70
     0
 10
0.0
 20
0.0
 30
0.0
  3
*Model_Space
  1

  0
ENDBLK
  5
79
330
77
100
AcDbEntity
  8
0
100
AcDbBlockEnd
  0
BLOCK
  5
74
330
73
100
AcDbEntity
 67
     1
  8
0
100
AcDbBlockBegin
  2
*Paper_Space
 70
     0
 10
0.0
 20
0.0
 30
0.0
  3
*Paper_Space
  1

  0
ENDBLK
  5
75
330
73
100
AcDbEntity
 67
     1
  8
0
100
AcDbBlockEnd
  0
BLOCK
  5
7C
330
7B
100
AcDbEntity
 67
     1
  8
0
100
AcDbBlockBegin
  2
*Paper_Space0
 70
     0
 10
0.0
 20
0.0
 30
0.0
  3
*Paper_Space0
  1

  0
ENDBLK
  5
7D
330
7B
100
AcDbEntity
 67
     1
  8
0
100
AcDbBlockEnd
  0
BLOCK
  5
E6
330
E5
100
AcDbEntity
  8
0
100
AcDbBlockBegin
  2
DatumFilled45
 70
     0
 10
0.0
 20
0.0
 30
0.0
  3
DatumFilled45
  1

  0
POLYLINE
  5
E8
330
E5
100
AcDbEntity
  8
0
 62
     0
100
AcDb2dPolyline
 66
     1
 10
0.0
 20
0.0
 30
0.0
 70
   128
  0
VERTEX
  5
E9
330
E8
100
AcDbEntity
  8
0
 62
     0
100
AcDbVertex
100
AcDb2dVertex
 10
0.0
 20
1.0
 30
0.0
  0
VERTEX
  5
EA
330
E8
100
AcDbEntity
  8
0
 62
     0
100
AcDbVertex
100
AcDb2dVertex
 10
0.0
 20
-1.0
 30
0.0
  0
VERTEX
  5
EC
330
E8
100
AcDbEntity
  8
0
 62
     0
100
AcDbVertex
100
AcDb2dVertex
 10
-1.0
 20
0.0
 30
0.0
  0
VERTEX
  5
ED
330
E8
100
AcDbEntity
  8
0
 62
     0
100
AcDbVertex
100
AcDb2dVertex
 10
0.0
 20
1.0
 30
0.0
  0
SEQEND
  5
EB
330
E8
100
AcDbEntity
  8
0
 62
     0
  0
SOLID
  5
EE
330
E5
100
AcDbEntity
  8
0
 62
     0
100
AcDbTrace
 10
0.0
 20
1.0
 30
0.0
 11
0.0
 21
-1.0
 31
0.0
 12
-1.0
 22
0.0
 32
0.0
 13
0.0
 23
1.0
 33
0.0
  0
ENDBLK
  5
E7
330
E5
100
AcDbEntity
  8
0
100
AcDbBlockEnd
  0
BLOCK
  5
F5
330
F0
100
AcDbEntity
  8
0
100
AcDbBlockBegin
  2
_Closed
 70
     0
 10
0.0
 20
0.0
 30
0.0
  3
_Closed
  1

  0
LINE
  5
F1
330
F0
100
AcDbEntity
  8
0
  6
ByBlock
 62
     0
370
    -2
100
AcDbLine
 10
-1.0
 20
0.1666666666666666
 30
0.0
 11
0.0
 21
0.0
 31
0.0
  0
LINE
  5
F2
330
F0
100
AcDbEntity
  8
0
  6
ByBlock
 62
     0
370
    -2
100
AcDbLine
 10
0.0
 20
0.0
 30
0.0
 11
-1.0
 21
-0.1666666666666666
 31
0.0
  0
LINE
  5
F3
330
F0
100
AcDbEntity
  8
0
  6
ByBlock
 62
     0
370
    -2
100
AcDbLine
 10
-1.0
 20
0.1666666666666666
 30
0.0
 11
-1.0
 21
-0.1666666666666666
 31
0.0
  0
LINE
  5
F4
330
F0
100
AcDbEntity
  8
0
  6
ByBlock
 62
     0
370
    -2
100
AcDbLine
 10
0.0
 20
0.0
 30
0.0
 11
-1.0
 21
0.0
 31
0.0
  0
ENDBLK
  5
F6
330
F0
100
AcDbEntity
  8
0
100
AcDbBlockEnd
  0
BLOCK
  5
100
330
FF
100
AcDbEntity
  8
0
100
AcDbBlockBegin
  2
Index
 70
     2
 10
0.0
 20
0.0
 30
0.0
  3
Index
  1

  0
CIRCLE
  5
102
330
FF
100
AcDbEntity
  8
Sketch Geometry(ISO)
  6
Continuous
 62
     7
370
    25
100
AcDbCircle
 10
0.0
 20
0.0
 30
0.0
 40
2.5
  0
ATTDEF
  5
104
102
{ACAD_XDICTIONARY
360
41F
102
}
330
FF
100
AcDbEntity
  8
Symbols(ISO)
 62
     7
100
AcDbText
 10
-0.0000000000000001
 20
-1.25
 30
0.0
 40
2.5
  1

 41
0.899999976158142
  7
Text Style49
 72
     1
 11
0.0
 21
0.0
 31
0.0
100
AcDbAttributeDefinition
  3
<Enter Prompt for Field>
  2
<Enter_Prompt_for_Field>
 70
     0
 74
     2
  0
ENDBLK
  5
101
330
FF
100
AcDbEntity
  8
0
100
AcDbBlockEnd
  0
BLOCK
  5
109
330
108
100
AcDbEntity
  8
0
100
AcDbBlockBegin
  2
AIR
 70
     0
 10
0.0
 20
0.0
 30
0.0
  3
AIR
  1

  0
LINE
  5
10B
330
108
100
AcDbEntity
  8
Sketch Geometry(ISO)
 62
     7
370
    70
100
AcDbLine
 10
-7.000000000000001
 20
6.000000000000049
 30
0.0
 11
6.999999999999992
 21
6.000000000000014
 31
0.0
  0
LINE
  5
10C
330
108
100
AcDbEntity
  8
Sketch Geometry(ISO)
 62
     7
370
    70
100
AcDbLine
 10
10.00000000000001
 20
3.000000000000007
 30
0.0
 11
10.00000000000001
 21
-2.999999999999971
 31
0.0
  0
LINE
  5
10D
330
108
100
AcDbEntity
  8
Sketch Geometry(ISO)
 62
     7
370
    70
100
AcDbLine
 10
6.999999999999992
 20
-5.999999999999978
 30
0.0
 11
-7.000000000000001
 21
-6.000000000000014
 31
0.0
  0
LINE
  5
10E
330
108
100
AcDbEntity
  8
Sketch Geometry(ISO)
 62
     7
370
    70
100
AcDbLine
 10
-10.00000000000001
 20
-2.999999999999971
 30
0.0
 11
-10.0
 21
3.000000000000007
 31
0.0
  0
ARC
  5
10F
330
108
100
AcDbEntity
  8
Sketch Geometry(ISO)
 62
     7
370
    70
100
AcDbCircle
 10
6.999999999999992
 20
3.000000000000007
 30
0.0
 40
3.0
100
AcDbArc
 50
0.0
 51
90.0
  0
ARC
  5
110
330
108
100
AcDbEntity
  8
Sketch Geometry(ISO)
 62
     7
370
    70
100
AcDbCircle
 10
6.999999999999992
 20
-2.999999999999971
 30
0.0
 40
3.0
100
AcDbArc
 50
270.0
 51
0.0
  0
ARC
  5
111
330
108
100
AcDbEntity
  8
Sketch Geometry(ISO)
 62
     7
370
    70
100
AcDbCircle
 10
-7.000000000000001
 20
-2.999999999999971
 30
0.0
 40
3.0
100
AcDbArc
 50
180.0
 51
270.0
  0
ARC
  5
112
330
108
100
AcDbEntity
  8
Sketch Geometry(ISO)
 62
     7
370
    70
100
AcDbCircle
 10
-7.000000000000001
 20
3.000000000000007
 30
0.0
 40
3.0
100
AcDbArc
 50
90.0
 51
180.0
  0
MTEXT
  5
113
330
108
100
AcDbEntity
  8
Symbols(ISO)
 62
     7
100
AcDbMText
 10
0.0
 20
0.0
 30
0.0
 40
6.99999988079071
 41
16.10195276430038
 71
     5
 72
     1
  1
\fArial|b0|i0;\H7.0000;AIR
  7
Text__3.5mm
 73
     1
 44
1.0
  0
ENDBLK
  5
10A
330
108
100
AcDbEntity
  8
0
100
AcDbBlockEnd
  0
BLOCK
  5
116
330
115
100
AcDbEntity
  8
0
100
AcDbBlockBegin
  2
Zertifizierungszeichnung
 70
     0
 10
0.0
 20
0.0
 30
0.0
  3
Zertifizierungszeichnung
  1

  0
LINE
  5
118
330
115
100
AcDbEntity
  8
Sketch Geometry(ISO)
100
AcDbLine
 10
-36.13491376407675
 20
6.581399957023617
 30
0.0
 11
36.13491376407676
 21
6.581399957023617
 31
0.0
  0
LINE
  5
119
330
115
100
AcDbEntity
  8
Sketch Geometry(ISO)
100
AcDbLine
 10
36.13491376407676
 20
6.581399957023617
 30
0.0
 11
36.13491376407676
 21
-6.581399957023634
 31
0.0
  0
LINE
  5
11A
330
115
100
AcDbEntity
  8
Sketch Geometry(ISO)
100
AcDbLine
 10
36.13491376407676
 20
-6.581399957023634
 30
0.0
 11
-36.13491376407675
 21
-6.581399957023634
 31
0.0
  0
LINE
  5
11B
330
115
100
AcDbEntity
  8
Sketch Geometry(ISO)
100
AcDbLine
 10
-36.13491376407675
 20
-6.581399957023634
 30
0.0
 11
-36.13491376407675
 21
6.581399957023617
 31
0.0
  0
MTEXT
  5
11C
330
115
100
AcDbEntity
  8
Symbols(ISO)
 62
     7
100
AcDbMText
 10
-34.13997890763035
 20
-0.338671892615654
 30
0.0
 40
3.000000119209289
 41
0.0
 71
     4
 72
     1
  1
\fTahoma|b0|i0;\H3.0000;Drawing for certification purposes only!\PDrawing not for manufacturing purposes!
  7
Text__3.5mm
 73
     2
 44
0.9442214369773864
  0
ENDBLK
  5
117
330
115
100
AcDbEntity
  8
0
100
AcDbBlockEnd
  0
BLOCK
  5
11E
330
11D
100
AcDbEntity
  8
0
100
AcDbBlockBegin
  2
Pfeil 1_1
 70
     0
 10
0.0
 20
0.0
 30
0.0
  3
Pfeil 1_1
  1

  0
HATCH
  5
127
330
11D
100
AcDbEntity
  8
Hatch
100
AcDbHatch
 10
0.0
 20
0.0
 30
0.0
210
0.0
220
0.0
230
1.0
  2
ANSI31
 70
     0
 71
     0
 91
        1
 92
        1
 93
        7
 72
     1
 10
-2.327499999999815
 20
0.6650000000002621
 11
0.0
 21
-2.659999999999875
 72
     1
 10
0.0
 20
-2.659999999999875
 11
2.327499999999833
 21
0.6650000000002621
 72
     1
 10
2.327499999999833
 20
0.6650000000002621
 11
0.6649999999998713
 21
0.6650000000002621
 72
     1
 10
0.6649999999998713
 20
0.6650000000002621
 11
0.6649999999998713
 21
2.659999999999858
 72
     1
 10
0.6649999999998713
 20
2.659999999999858
 11
-0.6649999999999779
 21
2.659999999999858
 72
     1
 10
-0.6649999999999779
 20
2.659999999999858
 11
-0.6649999999999779
 21
0.6650000000002621
 72
     1
 10
-0.6649999999999779
 20
0.6650000000002621
 11
-2.327499999999815
 21
0.6650000000002621
 97
        0
 75
     0
 76
     1
 52
0.0
 41
0.0254
 77
     0
 78
     1
 53
45.0
 43
0.0
 44
0.0
 45
-0.0022450640302673
 46
0.0022450640302673
 79
     0
 98
        1
 10
0.0
 20
0.0
  0
LINE
  5
128
330
11D
100
AcDbEntity
  8
MaSichtkante dünnFliese
370
     5
100
AcDbLine
 10
-2.327499999999815
 20
0.6650000000002621
 30
0.0
 11
-0.6649999999999779
 21
0.6650000000002621
 31
0.0
  0
LINE
  5
129
330
11D
100
AcDbEntity
  8
MaSichtkante dünnFliese
370
     5
100
AcDbLine
 10
0.0
 20
-2.659999999999875
 30
0.0
 11
-2.327499999999815
 21
0.6650000000002621
 31
0.0
  0
LINE
  5
12A
330
11D
100
AcDbEntity
  8
MaSichtkante dünnFliese
370
     5
100
AcDbLine
 10
-0.6649999999999779
 20
0.6650000000002621
 30
0.0
 11
-0.6649999999999779
 21
2.659999999999858
 31
0.0
  0
LINE
  5
12B
330
11D
100
AcDbEntity
  8
MaSichtkante dünnFliese
370
     5
100
AcDbLine
 10
-0.6649999999999779
 20
2.659999999999858
 30
0.0
 11
0.6649999999998713
 21
2.659999999999858
 31
0.0
  0
LINE
  5
12C
330
11D
100
AcDbEntity
  8
MaSichtkante dünnFliese
370
     5
100
AcDbLine
 10
0.6649999999998713
 20
2.659999999999858
 30
0.0
 11
0.6649999999998713
 21
0.6650000000002621
 31
0.0
  0
LINE
  5
12D
330
11D
100
AcDbEntity
  8
MaSichtkante dünnFliese
370
     5
100
AcDbLine
 10
2.327499999999833
 20
0.6650000000002621
 30
0.0
 11
0.0
 21
-2.659999999999875
 31
0.0
  0
LINE
  5
12E
330
11D
100
AcDbEntity
  8
MaSichtkante dünnFliese
370
     5
100
AcDbLine
 10
0.6649999999998713
 20
0.6650000000002621
 30
0.0
 11
2.327499999999833
 21
0.6650000000002621
 31
0.0
  0
ENDBLK
  5
11F
330
11D
100
AcDbEntity
  8
0
100
AcDbBlockEnd
  0
BLOCK
  5
130
330
12F
100
AcDbEntity
  8
0
100
AcDbBlockBegin
  2
TWK 1_1
 70
     0
 10
0.0
 20
0.0
 30
0.0
  3
TWK 1_1
  1

  0
HATCH
  5
134
330
12F
100
AcDbEntity
  8
Hatch
100
AcDbHatch
 10
0.0
 20
0.0
 30
0.0
210
0.0
220
0.0
230
1.0
  2
ANSI31
 70
     0
 71
     0
 91
        1
 92
        1
 93
        2
 72
     2
 10
0.0
 20
-3.324999949999316
 40
2.659999999999999
 50
148.4507563219768
 51
391.549243678031
 73
     1
 72
     1
 10
2.266827476457926
 20
-1.933204996720494
 11
-2.266827476458601
 21
-1.933204996720494
 97
        0
 75
     0
 76
     1
 52
0.0
 41
0.0254
 77
     0
 78
     1
 53
45.0
 43
0.0
 44
0.0
 45
-0.0022450640302673
 46
0.0022450640302673
 79
     0
 98
        1
 10
0.0
 20
0.0
  0
LINE
  5
135
330
12F
100
AcDbEntity
  8
MaSichtkante dünnFliese
100
AcDbLine
 10
-2.266827476458601
 20
-1.933204996720494
 30
0.0
 11
2.266827476457926
 21
-1.933204996720494
 31
0.0
  0
ARC
  5
136
330
12F
100
AcDbEntity
  8
MaSichtkante dünnFliese
100
AcDbCircle
 10
0.0
 20
-3.324999949999316
 30
0.0
 40
2.66
100
AcDbArc
 50
112.0243128370458
 51
67.97568716296805
  0
LINE
  5
137
330
12F
100
AcDbEntity
  8
MaSichtkante dünnFliese
100
AcDbLine
 10
-0.9975000000001621
 20
-0.8591139530400582
 30
0.0
 11
-0.9975000000001621
 21
5.985000049999325
 31
0.0
  0
LINE
  5
138
330
12F
100
AcDbEntity
  8
MaSichtkante dünnFliese
100
AcDbLine
 10
0.9974999999994693
 20
5.985000049999325
 30
0.0
 11
0.9974999999994693
 21
-0.8591139530400582
 31
0.0
  0
LINE
  5
139
330
12F
100
AcDbEntity
  8
MaSichtkante dünnFliese
100
AcDbLine
 10
0.9974999999994871
 20
2.827327836441568
 30
0.0
 11
2.194499999999255
 21
2.827327836441568
 31
0.0
  0
LINE
  5
13A
330
12F
100
AcDbEntity
  8
MaSichtkante dünnFliese
100
AcDbLine
 10
-0.9975000000001621
 20
5.985000049999325
 30
0.0
 11
0.9974999999994693
 21
5.985000049999325
 31
0.0
  0
LINE
  5
13B
330
12F
100
AcDbEntity
  8
MaSichtkante dünnFliese
100
AcDbLine
 10
0.9974999999994693
 20
4.932451836441167
 30
0.0
 11
2.194499999999237
 21
4.932451836441167
 31
0.0
  0
LINE
  5
13C
330
12F
100
AcDbEntity
  8
MaSichtkante dünnFliese
100
AcDbLine
 10
0.9974999999994693
 20
0.7222038364418637
 30
0.0
 11
2.194499999999237
 21
0.7222038364418637
 31
0.0
  0
ENDBLK
  5
131
330
12F
100
AcDbEntity
  8
0
100
AcDbBlockEnd
  0
BLOCK
  5
13E
330
13D
100
AcDbEntity
  8
0
100
AcDbBlockBegin
  2
TWW 1_1
 70
     0
 10
0.0
 20
0.0
 30
0.0
  3
TWW 1_1
  1

  0
HATCH
  5
144
330
13D
100
AcDbEntity
  8
Hatch
100
AcDbHatch
 10
0.0
 20
0.0
 30
0.0
210
0.0
220
0.0
230
1.0
  2
ANSI31
 70
     0
 71
     0
 91
        1
 92
        1
 93
        4
 72
     1
 10
0.9974999999997891
 20
4.796219377687265
 11
-0.997500000000091
 21
4.796219377687265
 72
     1
 10
-0.997500000000091
 20
4.796219377687265
 11
-0.997500000000091
 21
-0.8591139530402891
 72
     2
 10
0.0
 20
-3.324999950000062
 40
2.659999999999828
 50
112.0243128370404
 51
427.9756871629659
 73
     1
 72
     1
 10
0.9974999999997891
 20
-0.8591139530402891
 11
0.9974999999997891
 21
4.796219377687265
 97
        0
 75
     0
 76
     1
 52
0.0
 41
0.0254
 77
     0
 78
     1
 53
45.0
 43
0.0
 44
0.0
 45
-0.0022450640302673
 46
0.0022450640302673
 79
     0
 98
        1
 10
0.0
 20
0.0
  0
LINE
  5
145
330
13D
100
AcDbEntity
  8
MaSichtkante dünnFliese
370
    18
100
AcDbLine
 10
0.9974999999997891
 20
4.893283779707644
 30
0.0
 11
2.194499999999734
 21
4.893283779707644
 31
0.0
  0
LINE
  5
146
330
13D
100
AcDbEntity
  8
MaSichtkante dünnFliese
370
    18
100
AcDbLine
 10
0.9974999999997891
 20
0.8330332774134241
 30
0.0
 11
2.194499999999734
 21
0.8330332774134241
 31
0.0
  0
LINE
  5
147
330
13D
100
AcDbEntity
  8
MaSichtkante dünnFliese
370
    18
100
AcDbLine
 10
0.9974999999997891
 20
2.863158528560525
 30
0.0
 11
2.194499999999734
 21
2.863158528560525
 31
0.0
  0
LINE
  5
148
330
13D
100
AcDbEntity
  8
Sketch Geometry(DIN)
370
    18
100
AcDbLine
 10
0.9974999999997891
 20
5.985000049999911
 30
0.0
 11
0.9974999999997891
 21
-0.8591139530402891
 31
0.0
  0
LINE
  5
149
330
13D
100
AcDbEntity
  8
MaSichtkante dünnFliese
100
AcDbLine
 10
-0.997500000000091
 20
5.985000049999911
 30
0.0
 11
0.9974999999997891
 21
5.985000049999911
 31
0.0
  0
LINE
  5
14A
330
13D
100
AcDbEntity
  8
MaSichtkante dünnFliese
100
AcDbLine
 10
-0.997500000000091
 20
-0.8591139530402891
 30
0.0
 11
-0.997500000000091
 21
5.985000049999911
 31
0.0
  0
LINE
  5
14B
330
13D
100
AcDbEntity
  8
MaSichtkante dünnFliese
370
    18
100
AcDbLine
 10
-0.997500000000091
 20
4.796219377687265
 30
0.0
 11
0.9974999999997891
 21
4.796219377687265
 31
0.0
  0
ARC
  5
14C
330
13D
100
AcDbEntity
  8
MaSichtkante dünnFliese
370
    18
100
AcDbCircle
 10
0.0
 20
-3.324999950000062
 30
0.0
 40
2.659999999999829
100
AcDbArc
 50
112.0243128370402
 51
67.9756871629658
  0
ENDBLK
  5
13F
330
13D
100
AcDbEntity
  8
0
100
AcDbBlockEnd
  0
BLOCK
  5
14E
330
14D
100
AcDbEntity
  8
0
100
AcDbBlockBegin
  2
Title Blocks WS-Marketing-FUN
 70
     2
 10
0.0
 20
0.0
 30
0.0
  3
Title Blocks WS-Marketing-FUN
  1

  0
LINE
  5
150
330
14D
100
AcDbEntity
  8
Visible Edges(DIN)
100
AcDbLine
 10
89.59999999999997
 20
100.2741925130958
 30
0.0
 11
289.6
 21
100.2741925130958
 31
0.0
  0
LINE
  5
151
330
14D
100
AcDbEntity
  8
Visible Edges(DIN)
100
AcDbLine
 10
289.6
 20
100.2741925130958
 30
0.0
 11
289.6
 21
146.0241925130958
 31
0.0
  0
LINE
  5
152
330
14D
100
AcDbEntity
  8
Visible Edges(DIN)
100
AcDbLine
 10
289.6
 20
146.0241925130958
 30
0.0
 11
89.6
 21
146.0241925130958
 31
0.0
  0
LINE
  5
153
330
14D
100
AcDbEntity
  8
Visible Edges(DIN)
100
AcDbLine
 10
89.59999999999999
 20
146.0241925130958
 30
0.0
 11
89.59999999999997
 21
100.2741925130958
 31
0.0
  0
LINE
  5
154
330
14D
100
AcDbEntity
  8
Visible Edges(DIN)
100
AcDbLine
 10
154.6
 20
100.2741925130958
 30
0.0
 11
154.6
 21
146.0241925130958
 31
0.0
  0
LINE
  5
155
330
14D
100
AcDbEntity
  8
Visible Edges(DIN)
100
AcDbLine
 10
204.6
 20
100.2741925130958
 30
0.0
 11
204.6
 21
146.0241925130958
 31
0.0
  0
LINE
  5
156
330
14D
100
AcDbEntity
  8
Sketch Geometry(ISO)
  6
Continuous
 62
     7
370
    25
100
AcDbLine
 10
109.6
 20
131.0241925130958
 30
0.0
 11
109.6
 21
146.0241925130958
 31
0.0
  0
LINE
  5
157
330
14D
100
AcDbEntity
  8
Sketch Geometry(ISO)
  6
Continuous
 62
     7
370
    25
100
AcDbLine
 10
89.59999999999999
 20
138.5241925130958
 30
0.0
 11
154.6
 21
138.5241925130958
 31
0.0
  0
LINE
  5
158
330
14D
100
AcDbEntity
  8
Sketch Geometry(ISO)
  6
Continuous
 62
     7
370
    25
100
AcDbLine
 10
89.59999999999999
 20
131.0241925130958
 30
0.0
 11
154.6
 21
131.0241925130958
 31
0.0
  0
LINE
  5
159
330
14D
100
AcDbEntity
  8
Sketch Geometry(ISO)
  6
Continuous
 62
     7
370
    25
100
AcDbLine
 10
289.6
 20
110.2741925130957
 30
0.0
 11
204.6
 21
110.2741925130957
 31
0.0
  0
LINE
  5
15A
330
14D
100
AcDbEntity
  8
Sketch Geometry(ISO)
  6
Continuous
 62
     7
370
    25
100
AcDbLine
 10
216.6
 20
100.2741925130958
 30
0.0
 11
216.6
 21
110.2741925130957
 31
0.0
  0
LINE
  5
15B
330
14D
100
AcDbEntity
  8
Sketch Geometry(ISO)
  6
Continuous
 62
     7
370
    25
100
AcDbLine
 10
282.1
 20
110.2741925130957
 30
0.0
 11
282.1
 21
100.2741925130958
 31
0.0
  0
LINE
  5
15C
330
14D
100
AcDbEntity
  8
Sketch Geometry(ISO)
  6
Continuous
 62
     7
370
    25
100
AcDbLine
 10
274.6
 20
110.2741925130957
 30
0.0
 11
274.6
 21
100.2741925130958
 31
0.0
  0
LINE
  5
15D
330
14D
100
AcDbEntity
  8
Sketch Geometry(ISO)
  6
Continuous
 62
     7
370
    25
100
AcDbLine
 10
220.7048524866916
 20
143.6616925130957
 30
0.0
 11
226.2048524866916
 21
144.4616925130957
 31
0.0
  0
LINE
  5
15E
330
14D
100
AcDbEntity
  8
Centerline(ISO)
  6
Continuous
 62
     7
370
    18
100
AcDbLine
 10
227.2048524866917
 20
142.4616925130957
 30
0.0
 11
219.7048524866915
 21
142.4616925130957
 31
0.0
  0
LINE
  5
15F
330
14D
100
AcDbEntity
  8
Sketch Geometry(ISO)
  6
Continuous
 62
     7
370
    25
100
AcDbLine
 10
220.7048524866916
 20
143.6616925130957
 30
0.0
 11
220.7048524866916
 21
141.2616925130957
 31
0.0
  0
LINE
  5
160
330
14D
100
AcDbEntity
  8
Sketch Geometry(ISO)
  6
Continuous
 62
     7
370
    25
100
AcDbLine
 10
220.7048524866916
 20
141.2616925130957
 30
0.0
 11
226.2048524866916
 21
140.4616925130957
 31
0.0
  0
LINE
  5
161
330
14D
100
AcDbEntity
  8
Centerline(ISO)
  6
Continuous
 62
     7
370
    18
100
AcDbLine
 10
227.7048524866915
 20
142.4616925130957
 30
0.0
 11
233.7048524866915
 21
142.4616925130957
 31
0.0
  0
LINE
  5
162
330
14D
100
AcDbEntity
  8
Sketch Geometry(ISO)
  6
Continuous
 62
     7
370
    25
100
AcDbLine
 10
226.2048524866916
 20
144.4616925130957
 30
0.0
 11
226.2048524866916
 21
140.4616925130957
 31
0.0
  0
CIRCLE
  5
163
330
14D
100
AcDbEntity
  8
Sketch Geometry(ISO)
  6
Continuous
 62
     7
370
    25
100
AcDbCircle
 10
230.7048524866915
 20
142.4616925130957
 30
0.0
 40
1.199999999999999
  0
LINE
  5
164
330
14D
100
AcDbEntity
  8
Centerline(ISO)
  6
Continuous
 62
     7
370
    18
100
AcDbLine
 10
230.7048524866914
 20
145.4616925130957
 30
0.0
 11
230.7048524866914
 21
139.4616925130957
 31
0.0
  0
CIRCLE
  5
165
330
14D
100
AcDbEntity
  8
Sketch Geometry(ISO)
  6
Continuous
 62
     7
370
    25
100
AcDbCircle
 10
230.7048524866915
 20
142.4616925130957
 30
0.0
 40
2.0
  0
LINE
  5
166
330
14D
100
AcDbEntity
  8
Sketch Geometry(ISO)
  6
Continuous
 62
     7
370
    25
100
AcDbLine
 10
134.6
 20
131.0241925130958
 30
0.0
 11
134.6
 21
146.0241925130958
 31
0.0
  0
LINE
  5
167
330
14D
100
AcDbEntity
  8
Sketch Geometry(ISO)
  6
Continuous
 62
     7
370
    35
100
AcDbLine
 10
204.6
 20
138.5241925130958
 30
0.0
 11
289.6
 21
138.5241925130958
 31
0.0
  0
LINE
  5
168
330
14D
100
AcDbEntity
  8
Sketch Geometry(ISO)
  6
Continuous
 62
     7
370
    25
100
AcDbLine
 10
204.6
 20
131.0241925130958
 30
0.0
 11
289.6
 21
131.0241925130958
 31
0.0
  0
LINE
  5
169
330
14D
100
AcDbEntity
  8
Sketch Geometry(ISO)
  6
Continuous
 62
     7
370
    25
100
AcDbLine
 10
247.1
 20
146.0241925130957
 30
0.0
 11
247.1
 21
131.0241925130958
 31
0.0
  0
LINE
  5
16A
330
14D
100
AcDbEntity
  8
Sketch Geometry(ISO)
  6
Continuous
 62
     7
370
    25
100
AcDbLine
 10
263.6
 20
110.2741925130957
 30
0.0
 11
263.6
 21
100.2741925130958
 31
0.0
  0
LINE
  5
16B
330
14D
100
AcDbEntity
  8
Sketch Geometry(DIN)
  6
Continuous
 62
     7
370
    18
100
AcDbLine
 10
104.8419687591776
 20
126.4474596613701
 30
0.0
 11
104.708542955785
 21
126.4474596613701
 31
0.0
  0
LINE
  5
16C
330
14D
100
AcDbEntity
  8
Sketch Geometry(DIN)
  6
Continuous
 62
     7
370
    18
100
AcDbLine
 10
104.8419687591776
 20
125.9871380380973
 30
0.0
 11
104.8419687591776
 21
126.4474596613701
 31
0.0
  0
LINE
  5
16D
330
14D
100
AcDbEntity
  8
Sketch Geometry(DIN)
  6
Continuous
 62
     7
370
    18
100
AcDbLine
 10
105.032169470591
 20
126.4492027126165
 30
0.0
 11
105.032169470591
 21
125.9888377298602
 31
0.0
  0
LINE
  5
16E
330
14D
100
AcDbEntity
  8
Sketch Geometry(DIN)
  6
Continuous
 62
     7
370
    18
100
AcDbLine
 10
106.9469156010504
 20
125.9888377298602
 30
0.0
 11
106.9469156010504
 21
126.6493414177054
 31
0.0
  0
LINE
  5
16F
330
14D
100
AcDbEntity
  8
Sketch Geometry(DIN)
  6
Continuous
 62
     7
370
    18
100
AcDbLine
 10
105.032169470591
 20
125.9888377298602
 30
0.0
 11
106.9469156010504
 21
125.9888377298602
 31
0.0
  0
LINE
  5
170
330
14D
100
AcDbEntity
  8
Sketch Geometry(DIN)
  6
Continuous
 62
     7
370
    18
100
AcDbLine
 10
102.420185497654
 20
128.0753567911394
 30
0.0
 11
102.420185497654
 21
127.6550386275736
 31
0.0
  0
LINE
  5
171
330
14D
100
AcDbEntity
  8
Sketch Geometry(DIN)
  6
Continuous
 62
     7
370
    18
100
AcDbLine
 10
103.5743629236721
 20
128.0753567911394
 30
0.0
 11
102.420185497654
 21
128.0753567911394
 31
0.0
  0
LINE
  5
172
330
14D
100
AcDbEntity
  8
Sketch Geometry(DIN)
  6
Continuous
 62
     7
370
    18
100
AcDbLine
 10
103.4275910711816
 20
127.1946823167133
 30
0.0
 11
103.4275910711816
 21
127.6550386275736
 31
0.0
  0
LINE
  5
173
330
14D
100
AcDbEntity
  8
Sketch Geometry(DIN)
  6
Continuous
 62
     7
370
    18
100
AcDbLine
 10
103.4275910711816
 20
127.6550386275736
 30
0.0
 11
103.5743629236721
 21
127.6550386275736
 31
0.0
  0
LINE
  5
174
330
14D
100
AcDbEntity
  8
Sketch Geometry(DIN)
  6
Continuous
 62
     7
370
    18
100
AcDbLine
 10
103.5743629236721
 20
127.6550386275736
 30
0.0
 11
103.5743629236721
 21
128.0753567911394
 31
0.0
  0
LINE
  5
175
330
14D
100
AcDbEntity
  8
Sketch Geometry(DIN)
  6
Continuous
 62
     7
370
    18
100
AcDbLine
 10
103.7344894971573
 20
128.0753567911394
 30
0.0
 11
103.7344894971573
 21
127.6550386275736
 31
0.0
  0
LINE
  5
176
330
14D
100
AcDbEntity
  8
Sketch Geometry(DIN)
  6
Continuous
 62
     7
370
    18
100
AcDbLine
 10
103.8679153005499
 20
127.6550386275736
 30
0.0
 11
103.4275910711816
 21
127.1946823167133
 31
0.0
  0
LINE
  5
177
330
14D
100
AcDbEntity
  8
Sketch Geometry(DIN)
  6
Continuous
 62
     7
370
    18
100
AcDbLine
 10
103.7344894971573
 20
127.6550386275736
 30
0.0
 11
103.8679153005499
 21
127.6550386275736
 31
0.0
  0
LINE
  5
178
330
14D
100
AcDbEntity
  8
Sketch Geometry(DIN)
  6
Continuous
 62
     7
370
    18
100
AcDbLine
 10
104.0880947590273
 20
127.1813622833059
 30
0.0
 11
104.541765037493
 21
127.6616986442773
 31
0.0
  0
LINE
  5
179
330
14D
100
AcDbEntity
  8
Sketch Geometry(DIN)
  6
Continuous
 62
     7
370
    18
100
AcDbLine
 10
104.541765037493
 20
127.6616986442773
 30
0.0
 11
104.7152029724891
 21
127.6616986442773
 31
0.0
  0
LINE
  5
17A
330
14D
100
AcDbEntity
  8
Sketch Geometry(DIN)
  6
Continuous
 62
     7
370
    18
100
AcDbLine
 10
104.7152029724891
 20
127.6616986442773
 30
0.0
 11
104.7152029724891
 21
128.0753567911394
 31
0.0
  0
LINE
  5
17B
330
14D
100
AcDbEntity
  8
Sketch Geometry(DIN)
  6
Continuous
 62
     7
370
    18
100
AcDbLine
 10
104.7152029724891
 20
128.0753567911394
 30
0.0
 11
103.7344894971573
 21
128.0753567911394
 31
0.0
  0
LINE
  5
17C
330
14D
100
AcDbEntity
  8
Sketch Geometry(DIN)
  6
Continuous
 62
     7
370
    18
100
AcDbLine
 10
106.466544552492
 20
126.8695208761829
 30
0.0
 11
106.466544552492
 21
127.2230827785689
 31
0.0
  0
LINE
  5
17D
330
14D
100
AcDbEntity
  8
Sketch Geometry(DIN)
  6
Continuous
 62
     7
370
    18
100
AcDbLine
 10
106.5065913716826
 20
126.4492027126165
 30
0.0
 11
106.0462697484097
 21
126.4492027126165
 31
0.0
  0
LINE
  5
17E
330
14D
100
AcDbEntity
  8
Sketch Geometry(DIN)
  6
Continuous
 62
     7
370
    18
100
AcDbLine
 10
106.0462697484097
 20
126.4492027126165
 30
0.0
 11
106.0462697484097
 21
126.8695208761829
 31
0.0
  0
LINE
  5
17F
330
14D
100
AcDbEntity
  8
Sketch Geometry(DIN)
  6
Continuous
 62
     7
370
    18
100
AcDbLine
 10
106.0462697484097
 20
126.8695208761829
 30
0.0
 11
106.466544552492
 21
126.8695208761829
 31
0.0
  0
LINE
  5
180
330
14D
100
AcDbEntity
  8
Sketch Geometry(DIN)
  6
Continuous
 62
     7
370
    18
100
AcDbLine
 10
106.5065913716826
 20
127.4299161879484
 30
0.0
 11
106.9469156010504
 21
127.4299161879484
 31
0.0
  0
LINE
  5
181
330
14D
100
AcDbEntity
  8
Sketch Geometry(DIN)
  6
Continuous
 62
     7
370
    18
100
AcDbLine
 10
106.466544552492
 20
127.2230827785689
 30
0.0
 11
106.0462697484097
 21
127.2230827785689
 31
0.0
  0
LINE
  5
182
330
14D
100
AcDbEntity
  8
Sketch Geometry(DIN)
  6
Continuous
 62
     7
370
    18
100
AcDbLine
 10
106.5065913716826
 20
127.6500869745293
 30
0.0
 11
106.5065913716826
 21
127.4299161879484
 31
0.0
  0
LINE
  5
183
330
14D
100
AcDbEntity
  8
Sketch Geometry(DIN)
  6
Continuous
 62
     7
370
    18
100
AcDbLine
 10
106.0462697484097
 20
127.6500869745293
 30
0.0
 11
106.5065913716826
 21
127.6500869745293
 31
0.0
  0
LINE
  5
184
330
14D
100
AcDbEntity
  8
Sketch Geometry(DIN)
  6
Continuous
 62
     7
370
    18
100
AcDbLine
 10
106.0462697484097
 20
127.2230827785689
 30
0.0
 11
106.0462697484097
 21
127.6500869745293
 31
0.0
  0
LINE
  5
185
330
14D
100
AcDbEntity
  8
Sketch Geometry(DIN)
  6
Continuous
 62
     7
370
    18
100
AcDbLine
 10
105.2323081756798
 20
126.4492027126165
 30
0.0
 11
105.032169470591
 21
126.4492027126165
 31
0.0
  0
LINE
  5
186
330
14D
100
AcDbEntity
  8
Sketch Geometry(DIN)
  6
Continuous
 62
     7
370
    18
100
AcDbLine
 10
105.2323081756798
 20
127.6500869745293
 30
0.0
 11
105.2323081756798
 21
126.4492027126165
 31
0.0
  0
LINE
  5
187
330
14D
100
AcDbEntity
  8
Sketch Geometry(DIN)
  6
Continuous
 62
     7
370
    18
100
AcDbLine
 10
106.9469156010504
 20
127.4299161879484
 30
0.0
 11
106.9469156010504
 21
128.0770651547993
 31
0.0
  0
LINE
  5
188
330
14D
100
AcDbEntity
  8
Sketch Geometry(DIN)
  6
Continuous
 62
     7
370
    18
100
AcDbLine
 10
106.9469156010504
 20
128.0770651547993
 30
0.0
 11
105.032169470591
 21
128.0770651547993
 31
0.0
  0
LINE
  5
189
330
14D
100
AcDbEntity
  8
Sketch Geometry(DIN)
  6
Continuous
 62
     7
370
    18
100
AcDbLine
 10
105.032169470591
 20
128.0770651547993
 30
0.0
 11
105.032169470591
 21
127.6500869745293
 31
0.0
  0
LINE
  5
18A
330
14D
100
AcDbEntity
  8
Sketch Geometry(DIN)
  6
Continuous
 62
     7
370
    18
100
AcDbLine
 10
102.0646377309122
 20
124.5375774404595
 30
0.0
 11
102.0646377309122
 21
129.533943808766
 31
0.0
  0
LINE
  5
18B
330
14D
100
AcDbEntity
  8
Sketch Geometry(DIN)
  6
Continuous
 62
     7
370
    18
100
AcDbLine
 10
102.2772726392172
 20
124.5367536102683
 30
0.0
 11
107.2676023428579
 21
124.5375774404595
 31
0.0
  0
LINE
  5
18C
330
14D
100
AcDbEntity
  8
Sketch Geometry(DIN)
  6
Continuous
 62
     7
370
    18
100
AcDbLine
 10
107.2676023428579
 20
124.5375774404595
 30
0.0
 11
107.2676023428579
 21
129.533943808766
 31
0.0
  0
LINE
  5
18D
330
14D
100
AcDbEntity
  8
Sketch Geometry(DIN)
  6
Continuous
 62
     7
370
    18
100
AcDbLine
 10
107.2676023428579
 20
129.533943808766
 30
0.0
 11
102.2772726392172
 21
129.533943808766
 31
0.0
  0
LINE
  5
18E
330
14D
100
AcDbEntity
  8
Sketch Geometry(DIN)
  6
Continuous
 62
     7
370
    18
100
AcDbLine
 10
104.708542955785
 20
126.4474596613701
 30
0.0
 11
104.0880947590273
 21
127.1813622833059
 31
0.0
  0
LINE
  5
18F
330
14D
100
AcDbEntity
  8
Sketch Geometry(DIN)
  6
Continuous
 62
     7
370
    18
100
AcDbLine
 10
103.7344894971573
 20
125.9871380380973
 30
0.0
 11
104.8419687591776
 21
125.9871380380973
 31
0.0
  0
LINE
  5
190
330
14D
100
AcDbEntity
  8
Sketch Geometry(DIN)
  6
Continuous
 62
     7
370
    18
100
AcDbLine
 10
103.8679153005499
 20
126.4474596613701
 30
0.0
 11
103.7344894971573
 21
126.4474596613701
 31
0.0
  0
LINE
  5
191
330
14D
100
AcDbEntity
  8
Sketch Geometry(DIN)
  6
Continuous
 62
     7
370
    18
100
AcDbLine
 10
103.7344894971573
 20
126.4474596613701
 30
0.0
 11
103.7344894971573
 21
125.9871380380973
 31
0.0
  0
LINE
  5
192
330
14D
100
AcDbEntity
  8
Sketch Geometry(DIN)
  6
Continuous
 62
     7
370
    18
100
AcDbLine
 10
103.5810229403762
 20
125.9871380380973
 30
0.0
 11
103.5810229403762
 21
126.4474596613701
 31
0.0
  0
LINE
  5
193
330
14D
100
AcDbEntity
  8
Sketch Geometry(DIN)
  6
Continuous
 62
     7
370
    18
100
AcDbLine
 10
103.4275910711816
 20
126.9478367757306
 30
0.0
 11
103.8679153005499
 21
126.4474596613701
 31
0.0
  0
LINE
  5
194
330
14D
100
AcDbEntity
  8
Sketch Geometry(DIN)
  6
Continuous
 62
     7
370
    18
100
AcDbLine
 10
103.5810229403762
 20
126.4474596613701
 30
0.0
 11
103.4275910711816
 21
126.4474596613701
 31
0.0
  0
LINE
  5
195
330
14D
100
AcDbEntity
  8
Sketch Geometry(DIN)
  6
Continuous
 62
     7
370
    18
100
AcDbLine
 10
103.4275910711816
 20
126.4474596613701
 30
0.0
 11
103.4275910711816
 21
126.9478367757306
 31
0.0
  0
LINE
  5
196
330
14D
100
AcDbEntity
  8
Sketch Geometry(DIN)
  6
Continuous
 62
     7
370
    18
100
AcDbLine
 10
102.420185497654
 20
125.9871380380973
 30
0.0
 11
103.5810229403762
 21
125.9871380380973
 31
0.0
  0
LINE
  5
197
330
14D
100
AcDbEntity
  8
Sketch Geometry(DIN)
  6
Continuous
 62
     7
370
    18
100
AcDbLine
 10
102.420185497654
 20
126.4474596613701
 30
0.0
 11
102.420185497654
 21
125.9871380380973
 31
0.0
  0
LINE
  5
198
330
14D
100
AcDbEntity
  8
Sketch Geometry(DIN)
  6
Continuous
 62
     7
370
    18
100
AcDbLine
 10
102.6403649561314
 20
126.4474596613701
 30
0.0
 11
102.420185497654
 21
126.4474596613701
 31
0.0
  0
LINE
  5
199
330
14D
100
AcDbEntity
  8
Sketch Geometry(DIN)
  6
Continuous
 62
     7
370
    18
100
AcDbLine
 10
102.6403649561314
 20
127.6550386275736
 30
0.0
 11
102.6403649561314
 21
126.4474596613701
 31
0.0
  0
LINE
  5
19A
330
14D
100
AcDbEntity
  8
Sketch Geometry(DIN)
  6
Continuous
 62
     7
370
    18
100
AcDbLine
 10
102.2772726392172
 20
129.533943808766
 30
0.0
 11
102.2772726392172
 21
124.5367536102683
 31
0.0
  0
LINE
  5
19B
330
14D
100
AcDbEntity
  8
Sketch Geometry(DIN)
  6
Continuous
 62
     7
370
    18
100
AcDbLine
 10
102.420185497654
 20
127.6550386275736
 30
0.0
 11
102.6403649561314
 21
127.6550386275736
 31
0.0
  0
LINE
  5
19C
330
14D
100
AcDbEntity
  8
Sketch Geometry(DIN)
  6
Continuous
 62
     7
370
    18
100
AcDbLine
 10
101.0907923978064
 20
127.656746991233
 30
0.0
 11
101.2509102993947
 21
127.656746991233
 31
0.0
  0
LINE
  5
19D
330
14D
100
AcDbEntity
  8
Sketch Geometry(DIN)
  6
Continuous
 62
     7
370
    18
100
AcDbLine
 10
101.0907923978064
 20
128.0770651547993
 30
0.0
 11
101.0907923978064
 21
127.656746991233
 31
0.0
  0
LINE
  5
19E
330
14D
100
AcDbEntity
  8
Sketch Geometry(DIN)
  6
Continuous
 62
     7
370
    18
100
AcDbLine
 10
101.6845398244714
 20
127.656746991233
 30
0.0
 11
101.9113792996529
 21
127.656746991233
 31
0.0
  0
LINE
  5
19F
330
14D
100
AcDbEntity
  8
Sketch Geometry(DIN)
  6
Continuous
 62
     7
370
    18
100
AcDbLine
 10
101.9113792996529
 20
128.0770651547993
 30
0.0
 11
101.0907923978064
 21
128.0770651547993
 31
0.0
  0
LINE
  5
1A0
330
14D
100
AcDbEntity
  8
Sketch Geometry(DIN)
  6
Continuous
 62
     7
370
    18
100
AcDbLine
 10
101.9113792996529
 20
127.656746991233
 30
0.0
 11
101.9113792996529
 21
128.0770651547993
 31
0.0
  0
LINE
  5
1A1
330
14D
100
AcDbEntity
  8
Sketch Geometry(DIN)
  6
Continuous
 62
     7
370
    18
100
AcDbLine
 10
97.58174406558607
 20
127.6521422140591
 30
0.0
 11
97.58174406558607
 21
128.0791117224321
 31
0.0
  0
LINE
  5
1A2
330
14D
100
AcDbEntity
  8
Sketch Geometry(DIN)
  6
Continuous
 62
     7
370
    18
100
AcDbLine
 10
98.25965225020826
 20
127.6715672627784
 30
0.0
 11
98.08617962762557
 21
126.9844061643244
 31
0.0
  0
LINE
  5
1A3
330
14D
100
AcDbEntity
  8
Sketch Geometry(DIN)
  6
Continuous
 62
     7
370
    18
100
AcDbLine
 10
98.08617962762557
 20
126.9844061643244
 30
0.0
 11
98.43978488949515
 21
126.9844061643244
 31
0.0
  0
LINE
  5
1A4
330
14D
100
AcDbEntity
  8
Sketch Geometry(DIN)
  6
Continuous
 62
     7
370
    18
100
AcDbLine
 10
98.43978488949515
 20
126.9844061643244
 30
0.0
 11
98.25965225020826
 21
127.6715672627784
 31
0.0
  0
LINE
  5
1A5
330
14D
100
AcDbEntity
  8
Sketch Geometry(DIN)
  6
Continuous
 62
     7
370
    18
100
AcDbLine
 10
97.58174406558607
 20
128.0791117224321
 30
0.0
 11
99.11619283597984
 21
128.0791117224321
 31
0.0
  0
LINE
  5
1A6
330
14D
100
AcDbEntity
  8
Sketch Geometry(DIN)
  6
Continuous
 62
     7
370
    18
100
AcDbLine
 10
99.11619283597984
 20
127.6521422140591
 30
0.0
 11
98.94272021339663
 21
127.6521422140591
 31
0.0
  0
LINE
  5
1A7
330
14D
100
AcDbEntity
  8
Sketch Geometry(DIN)
  6
Continuous
 62
     7
370
    18
100
AcDbLine
 10
99.11619283597984
 20
128.0791117224321
 30
0.0
 11
99.11619283597984
 21
127.6587935588663
 31
0.0
  0
LINE
  5
1A8
330
14D
100
AcDbEntity
  8
Sketch Geometry(DIN)
  6
Continuous
 62
     7
370
    18
100
AcDbLine
 10
98.94272021339663
 20
127.6521422140591
 30
0.0
 11
99.30297682007381
 21
126.4512492802498
 31
0.0
  0
LINE
  5
1A9
330
14D
100
AcDbEntity
  8
Sketch Geometry(DIN)
  6
Continuous
 62
     7
370
    18
100
AcDbLine
 10
99.30297682007381
 20
126.4512492802498
 30
0.0
 11
99.49645550845856
 21
126.4512492802498
 31
0.0
  0
LINE
  5
1AA
330
14D
100
AcDbEntity
  8
Sketch Geometry(DIN)
  6
Continuous
 62
     7
370
    18
100
AcDbLine
 10
99.49645550845856
 20
126.4512492802498
 30
0.0
 11
99.49645550845856
 21
125.990927656977
 31
0.0
  0
LINE
  5
1AB
330
14D
100
AcDbEntity
  8
Sketch Geometry(DIN)
  6
Continuous
 62
     7
370
    18
100
AcDbLine
 10
99.49645550845856
 20
125.990927656977
 30
0.0
 11
98.36231883582909
 21
125.990927656977
 31
0.0
  0
LINE
  5
1AC
330
14D
100
AcDbEntity
  8
Sketch Geometry(DIN)
  6
Continuous
 62
     7
370
    18
100
AcDbLine
 10
98.36231883582909
 20
125.990927656977
 30
0.0
 11
98.36231883582909
 21
126.4512492802498
 31
0.0
  0
LINE
  5
1AD
330
14D
100
AcDbEntity
  8
Sketch Geometry(DIN)
  6
Continuous
 62
     7
370
    18
100
AcDbLine
 10
98.36231883582909
 20
126.4512492802498
 30
0.0
 11
98.56910888572512
 21
126.4512492802498
 31
0.0
  0
LINE
  5
1AE
330
14D
100
AcDbEntity
  8
Sketch Geometry(DIN)
  6
Continuous
 62
     7
370
    18
100
AcDbLine
 10
98.52241072172734
 20
126.6447279686345
 30
0.0
 11
98.00202754156533
 21
126.6447279686345
 31
0.0
  0
LINE
  5
1AF
330
14D
100
AcDbEntity
  8
Sketch Geometry(DIN)
  6
Continuous
 62
     7
370
    18
100
AcDbLine
 10
98.56910888572512
 20
126.4512492802498
 30
0.0
 11
98.52241072172734
 21
126.6447279686345
 31
0.0
  0
LINE
  5
1B0
330
14D
100
AcDbEntity
  8
Sketch Geometry(DIN)
  6
Continuous
 62
     7
370
    18
100
AcDbLine
 10
98.00202754156533
 20
126.6447279686345
 30
0.0
 11
97.94200067226325
 21
126.4512492802498
 31
0.0
  0
LINE
  5
1B1
330
14D
100
AcDbEntity
  8
Sketch Geometry(DIN)
  6
Continuous
 62
     7
370
    18
100
AcDbLine
 10
97.94200067226325
 20
126.4512492802498
 30
0.0
 11
98.12879332825378
 21
126.4512492802498
 31
0.0
  0
LINE
  5
1B2
330
14D
100
AcDbEntity
  8
Sketch Geometry(DIN)
  6
Continuous
 62
     7
370
    18
100
AcDbLine
 10
98.12879332825378
 20
126.4512492802498
 30
0.0
 11
98.12879332825378
 21
125.990927656977
 31
0.0
  0
LINE
  5
1B3
330
14D
100
AcDbEntity
  8
Sketch Geometry(DIN)
  6
Continuous
 62
     7
370
    18
100
AcDbLine
 10
97.36822462381239
 20
126.4512492802498
 30
0.0
 11
97.74852198387851
 21
127.6521422140591
 31
0.0
  0
LINE
  5
1B4
330
14D
100
AcDbEntity
  8
Sketch Geometry(DIN)
  6
Continuous
 62
     7
370
    18
100
AcDbLine
 10
97.22814747561304
 20
126.4512492802498
 30
0.0
 11
97.36822462381239
 21
126.4512492802498
 31
0.0
  0
LINE
  5
1B5
330
14D
100
AcDbEntity
  8
Sketch Geometry(DIN)
  6
Continuous
 62
     7
370
    18
100
AcDbLine
 10
98.12879332825378
 20
125.990927656977
 30
0.0
 11
97.22814747561304
 21
125.990927656977
 31
0.0
  0
LINE
  5
1B6
330
14D
100
AcDbEntity
  8
Sketch Geometry(DIN)
  6
Continuous
 62
     7
370
    18
100
AcDbLine
 10
97.22814747561304
 20
125.990927656977
 30
0.0
 11
97.22814747561304
 21
126.4512492802498
 31
0.0
  0
LINE
  5
1B7
330
14D
100
AcDbEntity
  8
Sketch Geometry(DIN)
  6
Continuous
 62
     7
370
    18
100
AcDbLine
 10
97.74852198387851
 20
127.6521422140591
 30
0.0
 11
97.58174406558607
 21
127.6521422140591
 31
0.0
  0
LINE
  5
1B8
330
14D
100
AcDbEntity
  8
Sketch Geometry(DIN)
  6
Continuous
 62
     7
370
    18
100
AcDbLine
 10
101.0707863320044
 20
125.9888377298602
 30
0.0
 11
101.6845398244714
 21
125.9888377298602
 31
0.0
  0
LINE
  5
1B9
330
14D
100
AcDbEntity
  8
Sketch Geometry(DIN)
  6
Continuous
 62
     7
370
    18
100
AcDbLine
 10
100.5036963159481
 20
125.9888377298602
 30
0.0
 11
100.5036963159481
 21
126.4492027126165
 31
0.0
  0
LINE
  5
1BA
330
14D
100
AcDbEntity
  8
Sketch Geometry(DIN)
  6
Continuous
 62
     7
370
    18
100
AcDbLine
 10
100.5036963159481
 20
126.4492027126165
 30
0.0
 11
100.330223693365
 21
126.4492027126165
 31
0.0
  0
LINE
  5
1BB
330
14D
100
AcDbEntity
  8
Sketch Geometry(DIN)
  6
Continuous
 62
     7
370
    18
100
AcDbLine
 10
99.64972261161467
 20
125.9888377298602
 30
0.0
 11
100.5036963159481
 21
125.9888377298602
 31
0.0
  0
LINE
  5
1BC
330
14D
100
AcDbEntity
  8
Sketch Geometry(DIN)
  6
Continuous
 62
     7
370
    18
100
AcDbLine
 10
99.85654734909727
 20
126.4492027126165
 30
0.0
 11
99.64972261161467
 21
126.4492027126165
 31
0.0
  0
LINE
  5
1BD
330
14D
100
AcDbEntity
  8
Sketch Geometry(DIN)
  6
Continuous
 62
     7
370
    18
100
AcDbLine
 10
99.64972261161467
 20
126.4492027126165
 30
0.0
 11
99.64972261161467
 21
125.9888377298602
 31
0.0
  0
LINE
  5
1BE
330
14D
100
AcDbEntity
  8
Sketch Geometry(DIN)
  6
Continuous
 62
     7
370
    18
100
AcDbLine
 10
101.6845398244714
 20
125.9888377298602
 30
0.0
 11
101.6845398244714
 21
127.656746991233
 31
0.0
  0
LINE
  5
1BF
330
14D
100
AcDbEntity
  8
Sketch Geometry(DIN)
  6
Continuous
 62
     7
370
    18
100
AcDbLine
 10
100.330223693365
 20
126.4492027126165
 30
0.0
 11
100.330223693365
 21
127.2364374995637
 31
0.0
  0
LINE
  5
1C0
330
14D
100
AcDbEntity
  8
Sketch Geometry(DIN)
  6
Continuous
 62
     7
370
    18
100
AcDbLine
 10
100.330223693365
 20
127.2364374995637
 30
0.0
 11
101.0707863320044
 21
125.9888377298602
 31
0.0
  0
LINE
  5
1C1
330
14D
100
AcDbEntity
  8
Sketch Geometry(DIN)
  6
Continuous
 62
     7
370
    18
100
AcDbLine
 10
101.2509102993947
 20
127.656746991233
 30
0.0
 11
101.2509102993947
 21
126.9762459094827
 31
0.0
  0
LINE
  5
1C2
330
14D
100
AcDbEntity
  8
Sketch Geometry(DIN)
  6
Continuous
 62
     7
370
    18
100
AcDbLine
 10
99.85654734909727
 20
127.656746991233
 30
0.0
 11
99.85654734909727
 21
126.4492027126165
 31
0.0
  0
LINE
  5
1C3
330
14D
100
AcDbEntity
  8
Sketch Geometry(DIN)
  6
Continuous
 62
     7
370
    18
100
AcDbLine
 10
101.2509102993947
 20
126.9762459094827
 30
0.0
 11
100.5904152834459
 21
128.0770651547993
 31
0.0
  0
LINE
  5
1C4
330
14D
100
AcDbEntity
  8
Sketch Geometry(DIN)
  6
Continuous
 62
     7
370
    18
100
AcDbLine
 10
99.64972261161467
 20
127.656746991233
 30
0.0
 11
99.85654734909727
 21
127.656746991233
 31
0.0
  0
LINE
  5
1C5
330
14D
100
AcDbEntity
  8
Sketch Geometry(DIN)
  6
Continuous
 62
     7
370
    18
100
AcDbLine
 10
100.5904152834459
 20
128.0770651547993
 30
0.0
 11
99.64972261161467
 21
128.0770651547993
 31
0.0
  0
LINE
  5
1C6
330
14D
100
AcDbEntity
  8
Sketch Geometry(DIN)
  6
Continuous
 62
     7
370
    18
100
AcDbLine
 10
99.64972261161467
 20
128.0770651547993
 30
0.0
 11
99.64972261161467
 21
127.656746991233
 31
0.0
  0
LINE
  5
1C7
330
14D
100
AcDbEntity
  8
Sketch Geometry(DIN)
  6
Continuous
 62
     7
370
    18
100
AcDbLine
 10
99.11619283597984
 20
127.6587935588663
 30
0.0
 11
99.11619283597984
 21
127.6521422140591
 31
0.0
  0
LINE
  5
1C8
330
14D
100
AcDbEntity
  8
Sketch Geometry(DIN)
  6
Continuous
 62
     7
370
    18
100
AcDbLine
 10
97.0742993553746
 20
124.5375774404595
 30
0.0
 11
102.0646377309122
 21
124.5375774404595
 31
0.0
  0
LINE
  5
1C9
330
14D
100
AcDbEntity
  8
Sketch Geometry(DIN)
  6
Continuous
 62
     7
370
    18
100
AcDbLine
 10
97.0742993553746
 20
129.533943808766
 30
0.0
 11
97.0742993553746
 21
124.5375774404595
 31
0.0
  0
LINE
  5
1CA
330
14D
100
AcDbEntity
  8
Sketch Geometry(DIN)
  6
Continuous
 62
     7
370
    18
100
AcDbLine
 10
102.0646377309122
 20
129.533943808766
 30
0.0
 11
97.0742993553746
 21
129.533943808766
 31
0.0
  0
LINE
  5
1CB
330
14D
100
AcDbEntity
  8
Sketch Geometry(DIN)
  6
Continuous
 62
     7
370
    18
100
AcDbLine
 10
96.56334252697977
 20
127.3913696068958
 30
0.0
 11
96.55003116546891
 21
127.3313167219032
 31
0.0
  0
LINE
  5
1CC
330
14D
100
AcDbEntity
  8
Sketch Geometry(DIN)
  6
Continuous
 62
     7
370
    18
100
AcDbLine
 10
96.55003116546891
 20
127.3313167219032
 30
0.0
 11
96.52999041207989
 21
127.2779498693052
 31
0.0
  0
LINE
  5
1CD
330
14D
100
AcDbEntity
  8
Sketch Geometry(DIN)
  6
Continuous
 62
     7
370
    18
100
AcDbLine
 10
96.52999041207989
 20
127.2779498693052
 30
0.0
 11
96.50332432957416
 21
127.2178969843126
 31
0.0
  0
LINE
  5
1CE
330
14D
100
AcDbEntity
  8
Sketch Geometry(DIN)
  6
Continuous
 62
     7
370
    18
100
AcDbLine
 10
96.46996354277778
 20
127.1711901484184
 30
0.0
 11
96.42991672358721
 21
127.1245180001106
 31
0.0
  0
LINE
  5
1CF
330
14D
100
AcDbEntity
  8
Sketch Geometry(DIN)
  6
Continuous
 62
     7
370
    18
100
AcDbLine
 10
96.42991672358721
 20
127.1245180001106
 30
0.0
 11
96.38990459198366
 21
127.0778111642164
 31
0.0
  0
LINE
  5
1D0
330
14D
100
AcDbEntity
  8
Sketch Geometry(DIN)
  6
Continuous
 62
     7
370
    18
100
AcDbLine
 10
96.38990459198366
 20
127.0778111642164
 30
0.0
 11
96.34319775608933
 21
127.0444590493165
 31
0.0
  0
LINE
  5
1D1
330
14D
100
AcDbEntity
  8
Sketch Geometry(DIN)
  6
Continuous
 62
     7
370
    18
100
AcDbLine
 10
96.34319775608933
 20
127.0444590493165
 30
0.0
 11
96.28983957538782
 21
127.0177582792238
 31
0.0
  0
LINE
  5
1D2
330
14D
100
AcDbEntity
  8
Sketch Geometry(DIN)
  6
Continuous
 62
     7
370
    18
100
AcDbLine
 10
96.28983957538782
 20
127.0177582792238
 30
0.0
 11
96.2631388052952
 21
126.9844061643244
 31
0.0
  0
LINE
  5
1D3
330
14D
100
AcDbEntity
  8
Sketch Geometry(DIN)
  6
Continuous
 62
     7
370
    18
100
AcDbLine
 10
96.50332432957416
 20
127.2178969843126
 30
0.0
 11
96.46996354277778
 21
127.1711901484184
 31
0.0
  0
LINE
  5
1D4
330
14D
100
AcDbEntity
  8
Sketch Geometry(DIN)
  6
Continuous
 62
     7
370
    18
100
AcDbLine
 10
96.50332432957416
 20
126.4440169183604
 30
0.0
 11
96.70346303466747
 21
126.4440169183604
 31
0.0
  0
LINE
  5
1D5
330
14D
100
AcDbEntity
  8
Sketch Geometry(DIN)
  6
Continuous
 62
     7
370
    18
100
AcDbLine
 10
96.2631388052952
 20
126.9844061643244
 30
0.0
 11
96.50332432957416
 21
126.4440169183604
 31
0.0
  0
LINE
  5
1D6
330
14D
100
AcDbEntity
  8
Sketch Geometry(DIN)
  6
Continuous
 62
     7
370
    18
100
AcDbLine
 10
96.70346303466747
 20
126.4440169183604
 30
0.0
 11
96.70346303466775
 21
125.9836519356054
 31
0.0
  0
LINE
  5
1D7
330
14D
100
AcDbEntity
  8
Sketch Geometry(DIN)
  6
Continuous
 62
     7
370
    18
100
AcDbLine
 10
96.70346303466775
 20
125.9836519356054
 30
0.0
 11
95.96959510031894
 21
125.9836519356054
 31
0.0
  0
LINE
  5
1D8
330
14D
100
AcDbEntity
  8
Sketch Geometry(DIN)
  6
Continuous
 62
     7
370
    18
100
AcDbLine
 10
96.12302696951054
 20
128.0652106719415
 30
0.0
 11
96.18307985450318
 21
128.0385185737453
 31
0.0
  0
LINE
  5
1D9
330
14D
100
AcDbEntity
  8
Sketch Geometry(DIN)
  6
Continuous
 62
     7
370
    18
100
AcDbLine
 10
96.0029472152188
 20
128.0718706886462
 30
0.0
 11
96.0630001002108
 21
128.0718706886462
 31
0.0
  0
LINE
  5
1DA
330
14D
100
AcDbEntity
  8
Sketch Geometry(DIN)
  6
Continuous
 62
     7
370
    18
100
AcDbLine
 10
96.0630001002108
 20
128.0718706886462
 30
0.0
 11
96.12302696951054
 21
128.0652106719415
 31
0.0
  0
LINE
  5
1DB
330
14D
100
AcDbEntity
  8
Sketch Geometry(DIN)
  6
Continuous
 62
     7
370
    18
100
AcDbLine
 10
95.74951970459785
 20
127.5380373966253
 30
0.0
 11
95.73616498360301
 21
127.5580781500138
 31
0.0
  0
LINE
  5
1DC
330
14D
100
AcDbEntity
  8
Sketch Geometry(DIN)
  6
Continuous
 62
     7
370
    18
100
AcDbLine
 10
91.85580337634981
 20
129.533943808766
 30
0.0
 11
91.85580337634981
 21
124.5375774404595
 31
0.0
  0
LINE
  5
1DD
330
14D
100
AcDbEntity
  8
Sketch Geometry(DIN)
  6
Continuous
 62
     7
370
    18
100
AcDbLine
 10
91.85580337634981
 20
124.5375774404595
 30
0.0
 11
96.85282778428158
 21
124.5375774404595
 31
0.0
  0
LINE
  5
1DE
330
14D
100
AcDbEntity
  8
Sketch Geometry(DIN)
  6
Continuous
 62
     7
370
    18
100
AcDbLine
 10
96.85282778428158
 20
124.5375774404595
 30
0.0
 11
96.85282778428158
 21
129.533943808766
 31
0.0
  0
LINE
  5
1DF
330
14D
100
AcDbEntity
  8
Sketch Geometry(DIN)
  6
Continuous
 62
     7
370
    18
100
AcDbLine
 10
96.85282778428158
 20
129.533943808766
 30
0.0
 11
91.85580337634981
 21
129.533943808766
 31
0.0
  0
LINE
  5
1E0
330
14D
100
AcDbEntity
  8
Sketch Geometry(DIN)
  6
Continuous
 62
     7
370
    18
100
AcDbLine
 10
94.51517059313244
 20
127.6515611969787
 30
0.0
 11
94.29502582224202
 21
127.6515611969787
 31
0.0
  0
LINE
  5
1E1
330
14D
100
AcDbEntity
  8
Sketch Geometry(DIN)
  6
Continuous
 62
     7
370
    18
100
AcDbLine
 10
94.29502582224202
 20
127.6515611969787
 30
0.0
 11
94.29502582224202
 21
128.0718706886462
 31
0.0
  0
LINE
  5
1E2
330
14D
100
AcDbEntity
  8
Sketch Geometry(DIN)
  6
Continuous
 62
     7
370
    18
100
AcDbLine
 10
94.29502582224202
 20
128.0718706886462
 30
0.0
 11
96.0029472152188
 21
128.0718706886462
 31
0.0
  0
LINE
  5
1E3
330
14D
100
AcDbEntity
  8
Sketch Geometry(DIN)
  6
Continuous
 62
     7
370
    18
100
AcDbLine
 10
95.75617104940505
 20
127.5180313308232
 30
0.0
 11
95.74951970459785
 21
127.5380373966253
 31
0.0
  0
LINE
  5
1E4
330
14D
100
AcDbEntity
  8
Sketch Geometry(DIN)
  6
Continuous
 62
     7
370
    18
100
AcDbLine
 10
95.63609996700732
 20
127.65814316661
 30
0.0
 11
95.61609390120526
 21
127.6648031833137
 31
0.0
  0
LINE
  5
1E5
330
14D
100
AcDbEntity
  8
Sketch Geometry(DIN)
  6
Continuous
 62
     7
370
    18
100
AcDbLine
 10
95.73616498360301
 20
127.5580781500138
 30
0.0
 11
95.72951363879589
 21
127.5780842158158
 31
0.0
  0
LINE
  5
1E6
330
14D
100
AcDbEntity
  8
Sketch Geometry(DIN)
  6
Continuous
 62
     7
370
    18
100
AcDbLine
 10
95.72951363879589
 20
127.5780842158158
 30
0.0
 11
95.7094989010973
 21
127.5980902816174
 31
0.0
  0
LINE
  5
1E7
330
14D
100
AcDbEntity
  8
Sketch Geometry(DIN)
  6
Continuous
 62
     7
370
    18
100
AcDbLine
 10
95.67614678619788
 20
127.638137100808
 30
0.0
 11
95.66280073710002
 21
127.6447971175117
 31
0.0
  0
LINE
  5
1E8
330
14D
100
AcDbEntity
  8
Sketch Geometry(DIN)
  6
Continuous
 62
     7
370
    18
100
AcDbLine
 10
95.7094989010973
 20
127.5980902816174
 30
0.0
 11
95.69615285199944
 21
127.6180963474194
 31
0.0
  0
LINE
  5
1E9
330
14D
100
AcDbEntity
  8
Sketch Geometry(DIN)
  6
Continuous
 62
     7
370
    18
100
AcDbLine
 10
95.69615285199944
 20
127.6180963474194
 30
0.0
 11
95.67614678619788
 21
127.638137100808
 31
0.0
  0
LINE
  5
1EA
330
14D
100
AcDbEntity
  8
Sketch Geometry(DIN)
  6
Continuous
 62
     7
370
    18
100
AcDbLine
 10
105.032169470591
 20
127.6500869745293
 30
0.0
 11
105.2323081756798
 21
127.6500869745293
 31
0.0
  0
LINE
  5
1EB
330
14D
100
AcDbEntity
  8
Sketch Geometry(DIN)
  6
Continuous
 62
     7
370
    18
100
AcDbLine
 10
96.18307985450318
 20
128.0385185737453
 30
0.0
 11
96.22978669039742
 21
128.0185125079437
 31
0.0
  0
LINE
  5
1EC
330
14D
100
AcDbEntity
  8
Sketch Geometry(DIN)
  6
Continuous
 62
     7
370
    18
100
AcDbLine
 10
96.22978669039742
 20
128.0185125079437
 30
0.0
 11
96.28983957538967
 21
127.9918117378511
 31
0.0
  0
LINE
  5
1ED
330
14D
100
AcDbEntity
  8
Sketch Geometry(DIN)
  6
Continuous
 62
     7
370
    18
100
AcDbLine
 10
96.28983957538967
 20
127.9918117378511
 30
0.0
 11
96.32985170699658
 21
127.9584509510524
 31
0.0
  0
LINE
  5
1EE
330
14D
100
AcDbEntity
  8
Sketch Geometry(DIN)
  6
Continuous
 62
     7
370
    18
100
AcDbLine
 10
96.32985170699658
 20
127.9584509510524
 30
0.0
 11
96.38320988769462
 21
127.9317588528585
 31
0.0
  0
LINE
  5
1EF
330
14D
100
AcDbEntity
  8
Sketch Geometry(DIN)
  6
Continuous
 62
     7
370
    18
100
AcDbLine
 10
96.38320988769462
 20
127.9317588528585
 30
0.0
 11
96.42326537878004
 21
127.8917467212558
 31
0.0
  0
LINE
  5
1F0
330
14D
100
AcDbEntity
  8
Sketch Geometry(DIN)
  6
Continuous
 62
     7
370
    18
100
AcDbLine
 10
96.42326537878004
 20
127.8917467212558
 30
0.0
 11
96.46327751038359
 21
127.8383798686578
 31
0.0
  0
LINE
  5
1F1
330
14D
100
AcDbEntity
  8
Sketch Geometry(DIN)
  6
Continuous
 62
     7
370
    18
100
AcDbLine
 10
96.5700372312704
 20
127.4514224918879
 30
0.0
 11
96.56334252697977
 21
127.3913696068958
 31
0.0
  0
LINE
  5
1F2
330
14D
100
AcDbEntity
  8
Sketch Geometry(DIN)
  6
Continuous
 62
     7
370
    18
100
AcDbLine
 10
96.57003723127045
 20
127.5114406892935
 30
0.0
 11
96.5700372312704
 21
127.4514224918879
 31
0.0
  0
LINE
  5
1F3
330
14D
100
AcDbEntity
  8
Sketch Geometry(DIN)
  6
Continuous
 62
     7
370
    18
100
AcDbLine
 10
96.57003723127047
 20
127.5714935742857
 30
0.0
 11
96.57003723127045
 21
127.5114406892935
 31
0.0
  0
LINE
  5
1F4
330
14D
100
AcDbEntity
  8
Sketch Geometry(DIN)
  6
Continuous
 62
     7
370
    18
100
AcDbLine
 10
96.56334252697977
 20
127.6315551311748
 30
0.0
 11
96.57003723127047
 21
127.5714935742857
 31
0.0
  0
LINE
  5
1F5
330
14D
100
AcDbEntity
  8
Sketch Geometry(DIN)
  6
Continuous
 62
     7
370
    18
100
AcDbLine
 10
96.54333646117775
 20
127.6916080161674
 30
0.0
 11
96.56334252697977
 21
127.6315551311748
 31
0.0
  0
LINE
  5
1F6
330
14D
100
AcDbEntity
  8
Sketch Geometry(DIN)
  6
Continuous
 62
     7
370
    18
100
AcDbLine
 10
96.52333039537621
 20
127.7382801644747
 30
0.0
 11
96.54333646117775
 21
127.6916080161674
 31
0.0
  0
LINE
  5
1F7
330
14D
100
AcDbEntity
  8
Sketch Geometry(DIN)
  6
Continuous
 62
     7
370
    18
100
AcDbLine
 10
96.48996960857983
 20
127.7916730327631
 30
0.0
 11
96.52333039537621
 21
127.7382801644747
 31
0.0
  0
LINE
  5
1F8
330
14D
100
AcDbEntity
  8
Sketch Geometry(DIN)
  6
Continuous
 62
     7
370
    18
100
AcDbLine
 10
96.46327751038359
 20
127.8383798686578
 30
0.0
 11
96.48996960857983
 21
127.7916730327631
 31
0.0
  0
LINE
  5
1F9
330
14D
100
AcDbEntity
  8
Sketch Geometry(DIN)
  6
Continuous
 62
     7
370
    18
100
AcDbLine
 10
93.22251164791238
 20
126.4511799050758
 30
0.0
 11
93.22251164791238
 21
126.864838051938
 31
0.0
  0
LINE
  5
1FA
330
14D
100
AcDbEntity
  8
Sketch Geometry(DIN)
  6
Continuous
 62
     7
370
    18
100
AcDbLine
 10
93.40264428719919
 20
126.4511799050758
 30
0.0
 11
93.22251164791238
 21
126.4511799050758
 31
0.0
  0
LINE
  5
1FB
330
14D
100
AcDbEntity
  8
Sketch Geometry(DIN)
  6
Continuous
 62
     7
370
    18
100
AcDbLine
 10
92.3685726311659
 20
127.6520728388851
 30
0.0
 11
92.3685726311659
 21
126.4511799050758
 31
0.0
  0
LINE
  5
1FC
330
14D
100
AcDbEntity
  8
Sketch Geometry(DIN)
  6
Continuous
 62
     7
370
    18
100
AcDbLine
 10
92.16839923849006
 20
127.6520728388851
 30
0.0
 11
92.3685726311659
 21
127.6520728388851
 31
0.0
  0
LINE
  5
1FD
330
14D
100
AcDbEntity
  8
Sketch Geometry(DIN)
  6
Continuous
 62
     7
370
    18
100
AcDbLine
 10
93.22251164791238
 20
126.864838051938
 30
0.0
 11
93.63616979477448
 21
126.864838051938
 31
0.0
  0
LINE
  5
1FE
330
14D
100
AcDbEntity
  8
Sketch Geometry(DIN)
  6
Continuous
 62
     7
370
    18
100
AcDbLine
 10
93.63616979477448
 20
126.864838051938
 30
0.0
 11
93.63616979477448
 21
127.2250946586152
 31
0.0
  0
LINE
  5
1FF
330
14D
100
AcDbEntity
  8
Sketch Geometry(DIN)
  6
Continuous
 62
     7
370
    18
100
AcDbLine
 10
93.22251164791238
 20
127.2250946586152
 30
0.0
 11
93.22251164791238
 21
127.6520728388851
 31
0.0
  0
LINE
  5
200
330
14D
100
AcDbEntity
  8
Sketch Geometry(DIN)
  6
Continuous
 62
     7
370
    18
100
AcDbLine
 10
92.16839923849006
 20
128.0857370515493
 30
0.0
 11
92.16839923849006
 21
127.6520728388851
 31
0.0
  0
LINE
  5
201
330
14D
100
AcDbEntity
  8
Sketch Geometry(DIN)
  6
Continuous
 62
     7
370
    18
100
AcDbLine
 10
94.12985220484376
 20
128.0857370515493
 30
0.0
 11
92.16839923849006
 21
128.0857370515493
 31
0.0
  0
LINE
  5
202
330
14D
100
AcDbEntity
  8
Sketch Geometry(DIN)
  6
Continuous
 62
     7
370
    18
100
AcDbLine
 10
93.22251164791238
 20
127.6520728388851
 30
0.0
 11
93.67618192637806
 21
127.6520728388851
 31
0.0
  0
LINE
  5
203
330
14D
100
AcDbEntity
  8
Sketch Geometry(DIN)
  6
Continuous
 62
     7
370
    18
100
AcDbLine
 10
93.67618192637806
 20
127.6520728388851
 30
0.0
 11
93.67618192637806
 21
127.4319280679947
 31
0.0
  0
LINE
  5
204
330
14D
100
AcDbEntity
  8
Sketch Geometry(DIN)
  6
Continuous
 62
     7
370
    18
100
AcDbLine
 10
94.51517059313244
 20
126.4440169183623
 30
0.0
 11
94.51517059313244
 21
127.6515611969787
 31
0.0
  0
LINE
  5
205
330
14D
100
AcDbEntity
  8
Sketch Geometry(DIN)
  6
Continuous
 62
     7
370
    18
100
AcDbLine
 10
93.67618192637806
 20
127.4319280679947
 30
0.0
 11
94.12985220484376
 21
127.4319280679947
 31
0.0
  0
LINE
  5
206
330
14D
100
AcDbEntity
  8
Sketch Geometry(DIN)
  6
Continuous
 62
     7
370
    18
100
AcDbLine
 10
94.12985220484376
 20
127.4319280679947
 30
0.0
 11
94.12985220484376
 21
128.0857370515493
 31
0.0
  0
LINE
  5
207
330
14D
100
AcDbEntity
  8
Sketch Geometry(DIN)
  6
Continuous
 62
     7
370
    18
100
AcDbLine
 10
93.63616979477448
 20
127.2250946586152
 30
0.0
 11
93.22251164791238
 21
127.2250946586152
 31
0.0
  0
LINE
  5
208
330
14D
100
AcDbEntity
  8
Sketch Geometry(DIN)
  6
Continuous
 62
     7
370
    18
100
AcDbLine
 10
92.3685726311659
 20
126.4511799050758
 30
0.0
 11
92.16839923849006
 21
126.4511799050758
 31
0.0
  0
LINE
  5
209
330
14D
100
AcDbEntity
  8
Sketch Geometry(DIN)
  6
Continuous
 62
     7
370
    18
100
AcDbLine
 10
93.40264428719919
 20
125.990858281803
 30
0.0
 11
93.40264428719919
 21
126.4511799050758
 31
0.0
  0
LINE
  5
20A
330
14D
100
AcDbEntity
  8
Sketch Geometry(DIN)
  6
Continuous
 62
     7
370
    18
100
AcDbLine
 10
92.16839923849006
 20
125.990858281803
 30
0.0
 11
93.40264428719919
 21
125.990858281803
 31
0.0
  0
LINE
  5
20B
330
14D
100
AcDbEntity
  8
Sketch Geometry(DIN)
  6
Continuous
 62
     7
370
    18
100
AcDbLine
 10
92.16839923849006
 20
126.4511799050758
 30
0.0
 11
92.16839923849006
 21
125.990858281803
 31
0.0
  0
LINE
  5
20C
330
14D
100
AcDbEntity
  8
Sketch Geometry(DIN)
  6
Continuous
 62
     7
370
    18
100
AcDbLine
 10
95.66280073710002
 20
127.6447971175117
 30
0.0
 11
95.63609996700732
 21
127.65814316661
 31
0.0
  0
LINE
  5
20D
330
14D
100
AcDbEntity
  8
Sketch Geometry(DIN)
  6
Continuous
 62
     7
370
    18
100
AcDbLine
 10
95.74285968789418
 20
127.3178926257348
 30
0.0
 11
95.74951970459785
 21
127.3378986915364
 31
0.0
  0
LINE
  5
20E
330
14D
100
AcDbEntity
  8
Sketch Geometry(DIN)
  6
Continuous
 62
     7
370
    18
100
AcDbLine
 10
95.74951970459785
 20
127.3378986915364
 30
0.0
 11
95.76286575369572
 21
127.3645994616291
 31
0.0
  0
LINE
  5
20F
330
14D
100
AcDbEntity
  8
Sketch Geometry(DIN)
  6
Continuous
 62
     7
370
    18
100
AcDbLine
 10
95.76286575369572
 20
127.3645994616291
 30
0.0
 11
95.76952577039946
 21
127.3846055274307
 31
0.0
  0
LINE
  5
210
330
14D
100
AcDbEntity
  8
Sketch Geometry(DIN)
  6
Continuous
 62
     7
370
    18
100
AcDbLine
 10
95.76952577039946
 20
127.3846055274307
 30
0.0
 11
95.78287181949779
 21
127.4179663142276
 31
0.0
  0
LINE
  5
211
330
14D
100
AcDbEntity
  8
Sketch Geometry(DIN)
  6
Continuous
 62
     7
370
    18
100
AcDbLine
 10
95.78287181949779
 20
127.4179663142276
 30
0.0
 11
95.78287181949779
 21
127.4379723800291
 31
0.0
  0
LINE
  5
212
330
14D
100
AcDbEntity
  8
Sketch Geometry(DIN)
  6
Continuous
 62
     7
370
    18
100
AcDbLine
 10
95.78287181949779
 20
127.4379723800291
 30
0.0
 11
95.78287181949779
 21
127.4646644782248
 31
0.0
  0
LINE
  5
213
330
14D
100
AcDbEntity
  8
Sketch Geometry(DIN)
  6
Continuous
 62
     7
370
    18
100
AcDbLine
 10
95.78287181949779
 20
127.4646644782248
 30
0.0
 11
95.76952577039946
 21
127.4846792159234
 31
0.0
  0
LINE
  5
214
330
14D
100
AcDbEntity
  8
Sketch Geometry(DIN)
  6
Continuous
 62
     7
370
    18
100
AcDbLine
 10
95.76952577039946
 20
127.4846792159234
 30
0.0
 11
95.75617104940505
 21
127.5180313308232
 31
0.0
  0
LINE
  5
215
330
14D
100
AcDbEntity
  8
Sketch Geometry(DIN)
  6
Continuous
 62
     7
370
    18
100
AcDbLine
 10
95.61609390120526
 20
127.6648031833137
 30
0.0
 11
95.58939313111256
 21
127.6781579043086
 31
0.0
  0
LINE
  5
216
330
14D
100
AcDbEntity
  8
Sketch Geometry(DIN)
  6
Continuous
 62
     7
370
    18
100
AcDbLine
 10
95.58939313111256
 20
127.6781579043086
 30
0.0
 11
95.56938706531102
 21
127.6781579043086
 31
0.0
  0
LINE
  5
217
330
14D
100
AcDbEntity
  8
Sketch Geometry(DIN)
  6
Continuous
 62
     7
370
    18
100
AcDbLine
 10
95.56938706531102
 20
127.6781579043086
 30
0.0
 11
95.549380999509
 21
127.6781579043086
 31
0.0
  0
LINE
  5
218
330
14D
100
AcDbEntity
  8
Sketch Geometry(DIN)
  6
Continuous
 62
     7
370
    18
100
AcDbLine
 10
95.549380999509
 20
127.6781579043086
 30
0.0
 11
95.29584942613215
 21
127.6781579043086
 31
0.0
  0
LINE
  5
219
330
14D
100
AcDbEntity
  8
Sketch Geometry(DIN)
  6
Continuous
 62
     7
370
    18
100
AcDbLine
 10
95.29584942613215
 20
127.6781579043086
 30
0.0
 11
95.29584942613215
 21
127.191126839046
 31
0.0
  0
LINE
  5
21A
330
14D
100
AcDbEntity
  8
Sketch Geometry(DIN)
  6
Continuous
 62
     7
370
    18
100
AcDbLine
 10
95.29584942613215
 20
127.191126839046
 30
0.0
 11
95.549380999509
 21
127.191126839046
 31
0.0
  0
LINE
  5
21B
330
14D
100
AcDbEntity
  8
Sketch Geometry(DIN)
  6
Continuous
 62
     7
370
    18
100
AcDbLine
 10
95.549380999509
 20
127.191126839046
 30
0.0
 11
95.56938706531102
 21
127.191126839046
 31
0.0
  0
LINE
  5
21C
330
14D
100
AcDbEntity
  8
Sketch Geometry(DIN)
  6
Continuous
 62
     7
370
    18
100
AcDbLine
 10
95.72951363879589
 20
127.2978865599328
 30
0.0
 11
95.74285968789418
 21
127.3178926257348
 31
0.0
  0
LINE
  5
21D
330
14D
100
AcDbEntity
  8
Sketch Geometry(DIN)
  6
Continuous
 62
     7
370
    18
100
AcDbLine
 10
95.7094989010973
 20
127.2778458065443
 30
0.0
 11
95.72951363879589
 21
127.2978865599328
 31
0.0
  0
LINE
  5
21E
330
14D
100
AcDbEntity
  8
Sketch Geometry(DIN)
  6
Continuous
 62
     7
370
    18
100
AcDbLine
 10
95.67614678619788
 20
127.2444936916444
 30
0.0
 11
95.69615285199944
 21
127.2645344450329
 31
0.0
  0
LINE
  5
21F
330
14D
100
AcDbEntity
  8
Sketch Geometry(DIN)
  6
Continuous
 62
     7
370
    18
100
AcDbLine
 10
95.66280073710002
 20
127.2378336749407
 30
0.0
 11
95.67614678619788
 21
127.2444936916444
 31
0.0
  0
LINE
  5
220
330
14D
100
AcDbEntity
  8
Sketch Geometry(DIN)
  6
Continuous
 62
     7
370
    18
100
AcDbLine
 10
95.63609996700732
 20
127.2178276091387
 30
0.0
 11
95.66280073710002
 21
127.2378336749407
 31
0.0
  0
LINE
  5
221
330
14D
100
AcDbEntity
  8
Sketch Geometry(DIN)
  6
Continuous
 62
     7
370
    18
100
AcDbLine
 10
95.61609390120526
 20
127.2044815600408
 30
0.0
 11
95.63609996700732
 21
127.2178276091387
 31
0.0
  0
LINE
  5
222
330
14D
100
AcDbEntity
  8
Sketch Geometry(DIN)
  6
Continuous
 62
     7
370
    18
100
AcDbLine
 10
95.59608783540372
 20
127.1977868557497
 30
0.0
 11
95.61609390120526
 21
127.2044815600408
 31
0.0
  0
LINE
  5
223
330
14D
100
AcDbEntity
  8
Sketch Geometry(DIN)
  6
Continuous
 62
     7
370
    18
100
AcDbLine
 10
95.56938706531102
 20
127.191126839046
 30
0.0
 11
95.59608783540372
 21
127.1977868557497
 31
0.0
  0
LINE
  5
224
330
14D
100
AcDbEntity
  8
Sketch Geometry(DIN)
  6
Continuous
 62
     7
370
    18
100
AcDbLine
 10
95.69615285199944
 20
127.2645344450329
 30
0.0
 11
95.7094989010973
 21
127.2778458065443
 31
0.0
  0
LINE
  5
225
330
14D
100
AcDbEntity
  8
Sketch Geometry(DIN)
  6
Continuous
 62
     7
370
    18
100
AcDbLine
 10
94.29502582224202
 20
125.9836519356054
 30
0.0
 11
94.29502582224202
 21
126.4440169183623
 31
0.0
  0
LINE
  5
226
330
14D
100
AcDbEntity
  8
Sketch Geometry(DIN)
  6
Continuous
 62
     7
370
    18
100
AcDbLine
 10
94.29502582224202
 20
126.4440169183623
 30
0.0
 11
94.51517059313244
 21
126.4440169183623
 31
0.0
  0
LINE
  5
227
330
14D
100
AcDbEntity
  8
Sketch Geometry(DIN)
  6
Continuous
 62
     7
370
    18
100
AcDbLine
 10
95.48922405176057
 20
125.9836519356054
 30
0.0
 11
94.29502582224202
 21
125.9836519356054
 31
0.0
  0
LINE
  5
228
330
14D
100
AcDbEntity
  8
Sketch Geometry(DIN)
  6
Continuous
 62
     7
370
    18
100
AcDbLine
 10
95.30244006766654
 20
126.8776464434394
 30
0.0
 11
95.30244006766654
 21
126.4440169183623
 31
0.0
  0
LINE
  5
229
330
14D
100
AcDbEntity
  8
Sketch Geometry(DIN)
  6
Continuous
 62
     7
370
    18
100
AcDbLine
 10
95.30244006766654
 20
126.4440169183623
 30
0.0
 11
95.48922405176057
 21
126.4440169183623
 31
0.0
  0
LINE
  5
22A
330
14D
100
AcDbEntity
  8
Sketch Geometry(DIN)
  6
Continuous
 62
     7
370
    18
100
AcDbLine
 10
95.58263772354912
 20
126.8776464434394
 30
0.0
 11
95.30244006766654
 21
126.8776464434394
 31
0.0
  0
LINE
  5
22B
330
14D
100
AcDbEntity
  8
Sketch Geometry(DIN)
  6
Continuous
 62
     7
370
    18
100
AcDbLine
 10
95.48922405176057
 20
126.4440169183623
 30
0.0
 11
95.48922405176057
 21
125.9836519356054
 31
0.0
  0
LINE
  5
22C
330
14D
100
AcDbEntity
  8
Sketch Geometry(DIN)
  6
Continuous
 62
     7
370
    18
100
AcDbLine
 10
95.96959510031894
 20
125.9836519356054
 30
0.0
 11
95.58263772354912
 21
126.8776464434394
 31
0.0
  0
LINE
  5
22D
330
14D
100
AcDbEntity
  8
Sketch Geometry(DIN)
  6
Continuous
 62
     7
370
    18
100
AcDbLine
 10
106.5065913716826
 20
126.6493414177054
 30
0.0
 11
106.5065913716826
 21
126.4492027126165
 31
0.0
  0
LINE
  5
22E
330
14D
100
AcDbEntity
  8
Sketch Geometry(DIN)
  6
Continuous
 62
     7
370
    18
100
AcDbLine
 10
106.9469156010504
 20
126.6493414177054
 30
0.0
 11
106.5065913716826
 21
126.6493414177054
 31
0.0
  0
LINE
  5
22F
330
14D
100
AcDbEntity
  8
Sketch Geometry(ISO)
  6
Continuous
 62
     7
370
    25
100
AcDbLine
 10
89.59999999999999
 20
110.2741925130958
 30
0.0
 11
154.6
 21
110.2741925130957
 31
0.0
  0
MTEXT
  5
230
330
14D
100
AcDbEntity
  8
Symbols(ISO)
 62
     7
100
AcDbMText
 10
155.6
 20
144.5241925130958
 30
0.0
 40
1.49859994649887
 41
23.77876622243585
 71
     4
 72
     1
  1
Revision Description:
  7
Text__1.5mm
 73
     1
 44
1.0
  0
MTEXT
  5
231
330
14D
100
AcDbEntity
  8
Symbols(ISO)
 62
     7
100
AcDbMText
 10
91.09999999999997
 20
105.2368704004262
 30
0.0
 40
1.299999952316284
 41
62.47629165649414
 71
     4
 72
     1
  1
\fArial|b0|i0;These drawings and specifications are the property of NIRO-Plan AG and shall not be reproduced, copied or transfered to any third party without the prior written permission of NIRO-Plan AG, Aarburg, Switzerland
  7
Text__1.3mm
 73
     2
 44
0.9442214369773864
  0
MTEXT
  5
232
330
14D
100
AcDbEntity
  8
Symbols(ISO)
 62
     7
100
AcDbMText
 10
264.6
 20
108.7741925130957
 30
0.0
 40
1.49859994649887
 41
6.68705082292643
 71
     4
 72
     1
  1
\fArial|b0|i0;Rev.
  7
Text__1.5mm
 73
     1
 44
1.0
  0
MTEXT
  5
233
330
14D
100
AcDbEntity
  8
Symbols(ISO)
 62
     7
100
AcDbMText
 10
275.6
 20
108.7741925130957
 30
0.0
 40
1.49859994649887
 41
6.68705082292643
 71
     4
 72
     1
  1
\fArial|b0|i0;Sheet
  7
Text__1.5mm
 73
     1
 44
1.0
  0
MTEXT
  5
234
330
14D
100
AcDbEntity
  8
Symbols(ISO)
 62
     7
100
AcDbMText
 10
205.6
 20
108.7741925130957
 30
0.0
 40
1.49859994649887
 41
6.629477143287658
 71
     4
 72
     1
  1
\fArial|b0|i0;Format
  7
Text__1.5mm
 73
     1
 44
1.0
  0
MTEXT
  5
235
330
14D
100
AcDbEntity
  8
Symbols(ISO)
 62
     7
100
AcDbMText
 10
248.1
 20
137.0241925130958
 30
0.0
 40
1.49859994649887
 41
9.419934749603271
 71
     4
 72
     1
  1
EAN / UPC
  7
Text__1.5mm
 73
     1
 44
1.0
  0
MTEXT
  5
236
330
14D
100
AcDbEntity
  8
Symbols(ISO)
 62
     7
100
AcDbMText
 10
205.6
 20
144.3687682948396
 30
0.0
 40
1.49859994649887
 41
8.959617614746093
 71
     4
 72
     1
  1
Projection
  7
Text__1.5mm
 73
     1
 44
1.0
  0
MTEXT
  5
237
330
14D
100
AcDbEntity
  8
Symbols(ISO)
 62
     7
100
AcDbMText
 10
248.1
 20
144.3687682948396
 30
0.0
 40
1.49859994649887
 41
41.00067758866362
 71
     4
 72
     1
  1
Local part number (producing site)
  7
Text__1.5mm
 73
     1
 44
1.0
  0
MTEXT
  5
238
330
14D
100
AcDbEntity
  8
Symbols(ISO)
 62
     7
100
AcDbMText
 10
218.1
 20
108.7741925130957
 30
0.0
 40
1.49859994649887
 41
13.84170077910116
 71
     4
 72
     1
  1
Drawing number
  7
Text__1.5mm
 73
     1
 44
1.0
  0
MTEXT
  5
239
330
14D
100
AcDbEntity
  8
Symbols(ISO)
 62
     7
100
AcDbMText
 10
205.6
 20
137.0241925130958
 30
0.0
 40
1.49859994649887
 41
16.71329739486093
 71
     4
 72
     1
  1
WS global number
  7
Text__1.5mm
 73
     1
 44
1.0
  0
MTEXT
  5
23A
330
14D
100
AcDbEntity
  8
Symbols(ISO)
 62
     7
100
AcDbMText
 10
283.1
 20
108.7741925130957
 30
0.0
 40
1.49859994649887
 41
6.68705082292643
 71
     4
 72
     1
  1
Sheets
  7
Text__1.5mm
 73
     1
 44
1.0
  0
MTEXT
  5
23B
330
14D
100
AcDbEntity
  8
Symbols(ISO)
 62
     7
100
AcDbMText
 10
91.09999999999997
 20
116.4337326665147
 30
0.0
 40
2.000000029802322
 41
51.58130403925817
 71
     4
 72
     1
  1
\fArial|b0|i0;\H2.0000;Franke Washroom Systems\PE-Mail: ws-info.int@franke.com\PInternet: www.franke.com
  7
Text__1.3mm
 73
     2
 44
0.9442214369773864
  0
MTEXT
  5
23C
330
14D
100
AcDbEntity
  8
Symbols(ISO)
 62
     7
100
AcDbMText
 10
90.6
 20
144.5241925130958
 30
0.0
 40
1.49859994649887
 41
8.959617614746093
 71
     4
 72
     1
  1
Drawn by
  7
Text__1.5mm
 73
     1
 44
1.0
  0
MTEXT
  5
23D
330
14D
100
AcDbEntity
  8
Symbols(ISO)
 62
     7
100
AcDbMText
 10
90.6
 20
137.0241925130958
 30
0.0
 40
1.49859994649887
 41
9.318276643753051
 71
     4
 72
     1
  1
Revised by
  7
Text__1.5mm
 73
     1
 44
1.0
  0
MTEXT
  5
23E
330
14D
100
AcDbEntity
  8
Symbols(ISO)
 62
     7
100
AcDbMText
 10
135.6
 20
137.0241925130958
 30
0.0
 40
1.49859994649887
 41
12.0866436953507
 71
     4
 72
     1
  1
Revision date
  7
Text__1.5mm
 73
     1
 44
1.0
  0
MTEXT
  5
23F
330
14D
100
AcDbEntity
  8
Symbols(ISO)
 62
     7
100
AcDbMText
 10
135.6
 20
144.5241925130958
 30
0.0
 40
1.49859994649887
 41
12.73810746214334
 71
     4
 72
     1
  1
Creation date
  7
Text__1.5mm
 73
     1
 44
1.0
  0
MTEXT
  5
240
330
14D
100
AcDbEntity
  8
Symbols(ISO)
 62
     7
100
AcDbMText
 10
110.6
 20
144.5241925130958
 30
0.0
 40
1.49859994649887
 41
10.88769435882568
 71
     4
 72
     1
  1
Departement
  7
Text__1.5mm
 73
     1
 44
1.0
  0
MTEXT
  5
241
330
14D
100
AcDbEntity
  8
Symbols(ISO)
 62
     7
100
AcDbMText
 10
110.6
 20
137.0241925130958
 30
0.0
 40
1.49859994649887
 41
13.53864551460898
 71
     4
 72
     1
  1
Departement
  7
Text__1.5mm
 73
     1
 44
1.0
  0
ATTDEF
  5
243
102
{ACAD_XDICTIONARY
360
423
102
}
330
14D
100
AcDbEntity
  8
Symbols(ISO)
 62
     7
100
AcDbText
 10
206.0508867667121
 20
124.2029101120044
 30
0.0
 40
5.0
  1
Urinaldruckspüler DN15
  7
Text Style20
100
AcDbAttributeDefinition
  3
Title
  2
Title_001
 70
     0
  0
ATTDEF
  5
245
102
{ACAD_XDICTIONARY
360
426
102
}
330
14D
100
AcDbEntity
  8
Symbols(ISO)
 62
     7
100
AcDbText
 10
206.6000000000001
 20
117.879240290086
 30
0.0
 40
3.499999940395355
  1
AQRM460
  7
Text Style9
100
AcDbAttributeDefinition
  3
Auxiliary_Remark1
  2
Auxiliary_Remark1_001
 70
     0
  0
ATTDEF
  5
246
102
{ACAD_XDICTIONARY
360
429
102
}
330
14D
100
AcDbEntity
  8
Symbols(ISO)
 62
     7
100
AcDbText
 10
206.2371077824419
 20
111.7886877592387
 30
0.0
 40
3.499999940395355
  1
Marketingzeichnung
  7
Text Style9
100
AcDbAttributeDefinition
  3
Auxiliary_Remark2
  2
Auxiliary_Remark2_001
 70
     0
  0
ATTDEF
  5
248
102
{ACAD_XDICTIONARY
360
42C
102
}
330
14D
100
AcDbEntity
  8
Symbols(ISO)
 62
     7
100
AcDbText
 10
247.9976807639836
 20
139.7903930587984
 30
0.0
 40
2.5
  1
25210222
  7
Text Style38
100
AcDbAttributeDefinition
  3
Part_number
  2
Part_number_001
 70
     0
  0
ATTDEF
  5
249
102
{ACAD_XDICTIONARY
360
42F
102
}
330
14D
100
AcDbEntity
  8
Symbols(ISO)
 62
     7
100
AcDbText
 10
217.8100954979536
 20
101.8065936045009
 30
0.0
 40
5.0
  1
0222-215254
  7
Text Style20
100
AcDbAttributeDefinition
  3
Document_Number
  2
Document_Number_001
 70
     0
  0
ATTDEF
  5
24B
102
{ACAD_XDICTIONARY
360
432
102
}
330
14D
100
AcDbEntity
  8
Symbols(ISO)
 62
     7
100
AcDbText
 10
155.6
 20
136.0241924832935
 30
0.0
 40
2.000000029802322
  1

  7
Text Style40
 11
155.6
 21
138.0241925130958
 31
0.0
100
AcDbAttributeDefinition
  3
Revision_Memo_1
  2
Revision_Memo_1
 70
     0
 74
     3
  0
ATTDEF
  5
24C
102
{ACAD_XDICTIONARY
360
435
102
}
330
14D
100
AcDbEntity
  8
Symbols(ISO)
 62
     7
100
AcDbText
 10
264.6
 20
101.7741925130957
 30
0.0
 40
5.0
  1
A
  7
Text Style20
100
AcDbAttributeDefinition
  3
Revision_Index_1
  2
Revision_Index_1_001
 70
     0
  0
ATTDEF
  5
24D
102
{ACAD_XDICTIONARY
360
438
102
}
330
14D
100
AcDbEntity
  8
Symbols(ISO)
 62
     7
100
AcDbText
 10
205.6
 20
101.7741925130958
 30
0.0
 40
5.0
  1
A4
  7
Text Style20
100
AcDbAttributeDefinition
  3
Sheet Size
  2
Sheet_Size_001
 70
     0
  0
ATTDEF
  5
24E
102
{ACAD_XDICTIONARY
360
43B
102
}
330
14D
100
AcDbEntity
  8
Symbols(ISO)
 62
     7
100
AcDbText
 10
90.53451568797372
 20
140.0235103699444
 30
0.0
 40
2.000000029802322
  1
Tafel
  7
Text Style40
100
AcDbAttributeDefinition
  3
Drawn_By
  2
Drawn_By_001
 70
     0
  0
ATTDEF
  5
24F
102
{ACAD_XDICTIONARY
360
43E
102
}
330
14D
100
AcDbEntity
  8
Symbols(ISO)
 62
     7
100
AcDbText
 10
90.6
 20
132.5241924981947
 30
0.0
 40
2.000000029802322
  1

  7
Text Style40
 11
90.6
 21
133.5241925130958
 31
0.0
100
AcDbAttributeDefinition
  3
Modified_By
  2
Modified_By
 70
     0
 74
     2
  0
ATTDEF
  5
250
102
{ACAD_XDICTIONARY
360
441
102
}
330
14D
100
AcDbEntity
  8
Symbols(ISO)
 62
     7
100
AcDbText
 10
135.5181446099671
 20
140.0371529349499
 30
0.0
 40
2.000000029802322
  1
25.11.2009
  7
Text Style40
100
AcDbAttributeDefinition
  3
Drawn_Date
  2
Drawn_Date_001
 70
     0
  0
ATTDEF
  5
251
102
{ACAD_XDICTIONARY
360
444
102
}
330
14D
100
AcDbEntity
  8
Symbols(ISO)
 62
     7
100
AcDbText
 10
135.6
 20
132.5241924981947
 30
0.0
 40
2.000000029802322
  1

  7
Text Style40
 11
135.6
 21
133.5241925130958
 31
0.0
100
AcDbAttributeDefinition
  3
Modified_Date
  2
Modified_Date
 70
     0
 74
     2
  0
ATTDEF
  5
252
102
{ACAD_XDICTIONARY
360
447
102
}
330
14D
100
AcDbEntity
  8
Symbols(ISO)
 62
     7
100
AcDbText
 10
155.6
 20
140.0241924981946
 30
0.0
 40
2.000000029802322
  1

  7
Text Style40
 11
155.6
 21
141.0241925130958
 31
0.0
100
AcDbAttributeDefinition
  3
Revision_Titel_1
  2
Revision_Titel_1
 70
     0
 74
     2
  0
ATTDEF
  5
253
102
{ACAD_XDICTIONARY
360
44A
102
}
330
14D
100
AcDbEntity
  8
Symbols(ISO)
 62
     7
100
AcDbText
 10
276.5972714870396
 20
101.8168255281025
 30
0.0
 40
5.0
  1
5
 41
0.9
  7
Text__5.0mm
100
AcDbAttributeDefinition
  3
Sheet number
  2
Sheet_number_001
 70
     0
  0
ATTDEF
  5
254
102
{ACAD_XDICTIONARY
360
44D
102
}
330
14D
100
AcDbEntity
  8
Symbols(ISO)
 62
     7
100
AcDbText
 10
284.0972714870396
 20
101.8168255281025
 30
0.0
 40
5.0
  1
5
 41
0.9
  7
Text__5.0mm
100
AcDbAttributeDefinition
  3
Number of sheets
  2
Number_of_sheets_001
 70
     0
  0
ATTDEF
  5
255
102
{ACAD_XDICTIONARY
360
450
102
}
330
14D
100
AcDbEntity
  8
Symbols(ISO)
 62
     7
100
AcDbText
 10
205.6
 20
132.2741925130958
 30
0.0
 40
2.5
  1

  7
Text Style38
 11
205.6
 21
133.5241925130958
 31
0.0
100
AcDbAttributeDefinition
  3
FUN
  2
FUN
 70
     0
 74
     2
  0
ATTDEF
  5
256
102
{ACAD_XDICTIONARY
360
453
102
}
330
14D
100
AcDbEntity
  8
Symbols(ISO)
 62
     7
100
AcDbText
 10
247.9345839017736
 20
132.2912457190985
 30
0.0
 40
2.5
  1
7612982000638
  7
Text Style38
100
AcDbAttributeDefinition
  3
EAN
  2
EAN_001
 70
     0
  0
ATTDEF
  5
257
102
{ACAD_XDICTIONARY
360
456
102
}
330
14D
100
AcDbEntity
  8
Symbols(ISO)
 62
     7
100
AcDbText
 10
110.370804907908
 20
132.8181897740626
 30
0.0
 40
2.000000029802322
  1
FAR-Marketing
  7
Text Style40
100
AcDbAttributeDefinition
  3
Departement
  2
Departement_001
 70
     0
  0
ATTDEF
  5
258
102
{ACAD_XDICTIONARY
360
459
102
}
330
14D
100
AcDbEntity
  8
Symbols(ISO)
 62
     7
100
AcDbText
 10
110.370804907908
 20
140.3181897740626
 30
0.0
 40
2.000000029802322
  1
FAR-Marketing
  7
Text Style40
100
AcDbAttributeDefinition
  3
Departement
  2
Departement_001
 70
     0
  0
ENDBLK
  5
14F
330
14D
100
AcDbEntity
  8
0
100
AcDbBlockEnd
  0
BLOCK
  5
26F
330
26E
100
AcDbEntity
  8
0
100
AcDbBlockBegin
  2
Borders Planung Border
 70
     0
 10
0.0
 20
0.0
 30
0.0
  3
Borders Planung Border
  1

  0
LINE
  5
271
330
26E
100
AcDbEntity
  8
Sketch Geometry(DIN)
100
AcDbLine
 10
4.999999999999946
 20
292.0
 30
0.0
 11
205.0
 21
292.0
 31
0.0
  0
LINE
  5
272
330
26E
100
AcDbEntity
  8
Sketch Geometry(DIN)
100
AcDbLine
 10
205.0
 20
292.0
 30
0.0
 11
205.0
 21
5.0
 31
0.0
  0
LINE
  5
273
330
26E
100
AcDbEntity
  8
Sketch Geometry(DIN)
100
AcDbLine
 10
205.0
 20
5.0
 30
0.0
 11
5.0
 21
4.999999999999975
 31
0.0
  0
LINE
  5
274
330
26E
100
AcDbEntity
  8
Sketch Geometry(DIN)
100
AcDbLine
 10
4.999999999999982
 20
4.999999999999975
 30
0.0
 11
4.999999999999946
 21
292.0
 31
0.0
  0
ENDBLK
  5
270
330
26E
100
AcDbEntity
  8
0
100
AcDbBlockEnd
  0
ENDSEC
  0
SECTION
  2
ENTITIES
  0
INSERT
  5
259
330
77
100
AcDbEntity
  8
0
100
AcDbBlockReference
 66
     1
  2
Title Blocks WS-Marketing-FUN
 10
-169.2
 20
-190.5483850261916
 30
0.0
 41
2.0
 42
2.0
 43
2.0
  0
ATTRIB
  5
25B
102
{ACAD_XDICTIONARY
360
45C
102
}
330
259
100
AcDbEntity
  8
Symbols(ISO)
 62
     7
100
AcDbText
 10
242.9017735334243
 20
57.85743519781728
 30
0.0
 40
10.0
  1
Urinaldruckspüler DN15
  7
Text Style20
100
AcDbAttribute
  2
Title_001
 70
     0
  0
ATTRIB
  5
25C
102
{ACAD_XDICTIONARY
360
45F
102
}
330
259
100
AcDbEntity
  8
Symbols(ISO)
 62
     7
100
AcDbText
 10
244.0000000000001
 20
45.21009555398044
 30
0.0
 40
6.99999988079071
  1
AQRM460
  7
Text Style9
100
AcDbAttribute
  2
Auxiliary_Remark1_001
 70
     0
  0
ATTRIB
  5
25D
102
{ACAD_XDICTIONARY
360
462
102
}
330
259
100
AcDbEntity
  8
Symbols(ISO)
 62
     7
100
AcDbText
 10
243.2742155648839
 20
33.02899049228579
 30
0.0
 40
6.99999988079071
  1
Marketingzeichnung
  7
Text Style9
100
AcDbAttribute
  2
Auxiliary_Remark2_001
 70
     0
  0
ATTRIB
  5
25E
102
{ACAD_XDICTIONARY
360
465
102
}
330
259
100
AcDbEntity
  8
Symbols(ISO)
 62
     7
100
AcDbText
 10
326.7953615279673
 20
89.03240109140527
 30
0.0
 40
5.0
  1
25210222
  7
Text Style38
100
AcDbAttribute
  2
Part_number_001
 70
     0
  0
ATTRIB
  5
25F
102
{ACAD_XDICTIONARY
360
468
102
}
330
259
100
AcDbEntity
  8
Symbols(ISO)
 62
     7
100
AcDbText
 10
266.4201909959071
 20
13.06480218281034
 30
0.0
 40
10.0
  1
0222-215254
  7
Text Style20
100
AcDbAttribute
  2
Document_Number_001
 70
     0
  0
ATTRIB
  5
260
102
{ACAD_XDICTIONARY
360
46B
102
}
330
259
100
AcDbEntity
  8
Symbols(ISO)
 62
     7
100
AcDbText
 10
142.0
 20
81.49999994039539
 30
0.0
 40
4.000000059604644
  1

  7
Text Style40
 11
142.0
 21
85.50000000000004
 31
0.0
100
AcDbAttribute
  2
Revision_Memo_1
 70
     0
 74
     3
  0
ATTRIB
  5
261
102
{ACAD_XDICTIONARY
360
46E
102
}
330
259
100
AcDbEntity
  8
Symbols(ISO)
 62
     7
100
AcDbText
 10
360.0
 20
12.99999999999986
 30
0.0
 40
10.0
  1
A
  7
Text Style20
100
AcDbAttribute
  2
Revision_Index_1_001
 70
     0
  0
ATTRIB
  5
262
102
{ACAD_XDICTIONARY
360
471
102
}
330
259
100
AcDbEntity
  8
Symbols(ISO)
 62
     7
100
AcDbText
 10
242.0
 20
12.99999999999997
 30
0.0
 40
10.0
  1
A4
  7
Text Style20
100
AcDbAttribute
  2
Sheet_Size_001
 70
     0
  0
ATTRIB
  5
263
102
{ACAD_XDICTIONARY
360
474
102
}
330
259
100
AcDbEntity
  8
Symbols(ISO)
 62
     7
100
AcDbText
 10
11.86903137594742
 20
89.49863571369723
 30
0.0
 40
4.000000059604644
  1
Tafel
  7
Text Style40
100
AcDbAttribute
  2
Drawn_By_001
 70
     0
  0
ATTRIB
  5
264
102
{ACAD_XDICTIONARY
360
477
102
}
330
259
100
AcDbEntity
  8
Symbols(ISO)
 62
     7
100
AcDbText
 10
11.99999999999995
 20
74.4999999701978
 30
0.0
 40
4.000000059604644
  1

  7
Text Style40
 11
11.99999999999995
 21
76.50000000000012
 31
0.0
100
AcDbAttribute
  2
Modified_By
 70
     0
 74
     2
  0
ATTRIB
  5
265
102
{ACAD_XDICTIONARY
360
47A
102
}
330
259
100
AcDbEntity
  8
Symbols(ISO)
 62
     7
100
AcDbText
 10
101.8362892199343
 20
89.52592084370817
 30
0.0
 40
4.000000059604644
  1
25.11.2009
  7
Text Style40
100
AcDbAttribute
  2
Drawn_Date_001
 70
     0
  0
ATTRIB
  5
266
102
{ACAD_XDICTIONARY
360
47D
102
}
330
259
100
AcDbEntity
  8
Symbols(ISO)
 62
     7
100
AcDbText
 10
102.0
 20
74.4999999701978
 30
0.0
 40
4.000000059604644
  1

  7
Text Style40
 11
102.0
 21
76.50000000000012
 31
0.0
100
AcDbAttribute
  2
Modified_Date
 70
     0
 74
     2
  0
ATTRIB
  5
267
102
{ACAD_XDICTIONARY
360
480
102
}
330
259
100
AcDbEntity
  8
Symbols(ISO)
 62
     7
100
AcDbText
 10
142.0
 20
89.49999997019771
 30
0.0
 40
4.000000059604644
  1

  7
Text Style40
 11
142.0
 21
91.50000000000003
 31
0.0
100
AcDbAttribute
  2
Revision_Titel_1
 70
     0
 74
     2
  0
ATTRIB
  5
268
102
{ACAD_XDICTIONARY
360
483
102
}
330
259
100
AcDbEntity
  8
Symbols(ISO)
 62
     7
100
AcDbText
 10
383.9945429740792
 20
13.0852660300135
 30
0.0
 40
10.0
  1
5
 41
0.9
  7
Text__5.0mm
100
AcDbAttribute
  2
Sheet_number_001
 70
     0
  0
ATTRIB
  5
269
102
{ACAD_XDICTIONARY
360
486
102
}
330
259
100
AcDbEntity
  8
Symbols(ISO)
 62
     7
100
AcDbText
 10
398.9945429740791
 20
13.0852660300135
 30
0.0
 40
10.0
  1
5
 41
0.9
  7
Text__5.0mm
100
AcDbAttribute
  2
Number_of_sheets_001
 70
     0
  0
ATTRIB
  5
26A
102
{ACAD_XDICTIONARY
360
489
102
}
330
259
100
AcDbEntity
  8
Symbols(ISO)
 62
     7
100
AcDbText
 10
242.0
 20
74.00000000000009
 30
0.0
 40
5.0
  1

  7
Text Style38
 11
242.0
 21
76.50000000000009
 31
0.0
100
AcDbAttribute
  2
FUN
 70
     0
 74
     2
  0
ATTRIB
  5
26B
102
{ACAD_XDICTIONARY
360
48C
102
}
330
259
100
AcDbEntity
  8
Symbols(ISO)
 62
     7
100
AcDbText
 10
326.6691678035471
 20
74.03410641200554
 30
0.0
 40
5.0
  1
7612982000638
  7
Text Style38
100
AcDbAttribute
  2
EAN_001
 70
     0
  0
ATTRIB
  5
26C
102
{ACAD_XDICTIONARY
360
48F
102
}
330
259
100
AcDbEntity
  8
Symbols(ISO)
 62
     7
100
AcDbText
 10
51.54160981581607
 20
75.08799452193368
 30
0.0
 40
4.000000059604644
  1
FAR-Marketing
  7
Text Style40
100
AcDbAttribute
  2
Departement_001
 70
     0
  0
ATTRIB
  5
26D
102
{ACAD_XDICTIONARY
360
492
102
}
330
259
100
AcDbEntity
  8
Symbols(ISO)
 62
     7
100
AcDbText
 10
51.54160981581607
 20
90.08799452193363
 30
0.0
 40
4.000000059604644
  1
FAR-Marketing
  7
Text Style40
100
AcDbAttribute
  2
Departement_001
 70
     0
  0
SEQEND
  5
25A
330
259
100
AcDbEntity
  8
0
  0
INSERT
  5
275
330
77
100
AcDbEntity
  8
0
100
AcDbBlockReference
  2
Borders Planung Border
 10
0.0
 20
0.0
 30
0.0
 41
2.0
 42
2.0
 43
2.0
  0
LINE
  5
276
330
77
100
AcDbEntity
  8
MaVisibleEdge
100
AcDbLine
 10
122.5812376799437
 20
462.7904059903418
 30
0.0
 11
86.98123767994378
 21
462.7904059903418
 31
0.0
  0
LINE
  5
277
330
77
100
AcDbEntity
  8
MaVisibleEdge
100
AcDbLine
 10
86.53123767994378
 20
463.2404059903418
 30
0.0
 11
123.0312376799437
 21
463.2404059903418
 31
0.0
  0
LINE
  5
278
330
77
100
AcDbEntity
  8
MaVisibleEdge
100
AcDbLine
 10
86.98123767994378
 20
462.7904059903418
 30
0.0
 11
86.53123767994378
 21
463.2404059903418
 31
0.0
  0
LINE
  5
279
330
77
100
AcDbEntity
  8
MaVisibleEdge
100
AcDbLine
 10
122.5812376799437
 20
462.7904059903418
 30
0.0
 11
123.0312376799437
 21
463.2404059903418
 31
0.0
  0
LINE
  5
27A
330
77
100
AcDbEntity
  8
MaVisibleEdge
100
AcDbLine
 10
86.53123767994378
 20
536.7904059903418
 30
0.0
 11
123.0312376799437
 21
536.7904059903418
 31
0.0
  0
LINE
  5
27B
330
77
100
AcDbEntity
  8
MaVisibleEdge
100
AcDbLine
 10
122.0312376799437
 20
537.7904059903418
 30
0.0
 11
87.53123767994379
 21
537.7904059903418
 31
0.0
  0
LINE
  5
27C
330
77
100
AcDbEntity
  8
MaVisibleEdge
100
AcDbLine
 10
88.28123767994377
 20
537.7904059903418
 30
0.0
 11
88.28123767994377
 21
540.4904059903418
 31
0.0
  0
LINE
  5
27D
330
77
100
AcDbEntity
  8
MaVisibleEdge
100
AcDbLine
 10
121.2812376799438
 20
537.7904059903418
 30
0.0
 11
121.2812376799438
 21
540.4904059903418
 31
0.0
  0
LINE
  5
27E
330
77
100
AcDbEntity
  8
MaVisibleEdge
100
AcDbLine
 10
122.0312376799437
 20
537.7904059903418
 30
0.0
 11
123.0312376799437
 21
536.7904059903418
 31
0.0
  0
LINE
  5
27F
330
77
100
AcDbEntity
  8
MaVisibleEdge
100
AcDbLine
 10
87.53123767994379
 20
537.7904059903418
 30
0.0
 11
86.53123767994378
 21
536.7904059903418
 31
0.0
  0
LINE
  5
280
330
77
100
AcDbEntity
  8
MaVisibleEdge
100
AcDbLine
 10
123.0312376799437
 20
536.7904059903418
 30
0.0
 11
123.0312376799437
 21
463.2404059903417
 31
0.0
  0
LINE
  5
281
330
77
100
AcDbEntity
  8
MaVisibleEdge
100
AcDbLine
 10
86.53123767994378
 20
536.7904059903418
 30
0.0
 11
86.53123767994378
 21
463.2404059903418
 31
0.0
  0
ARC
  5
282
330
77
100
AcDbEntity
  8
MaVisibleEdge
100
AcDbCircle
 10
104.7812376799466
 20
503.4904059902897
 30
0.0
 40
59.98676287120566
100
AcDbArc
 50
93.23821684048066
 51
94.03713637710957
  0
ELLIPSE
  5
283
330
77
100
AcDbEntity
  8
MaVisibleEdge
100
AcDbEllipse
 10
100.8007674338498
 20
503.4904059903257
 30
0.0
 11
-0.0000000000041693
 21
59.84083009077899
 31
0.0
210
0.0
220
0.0
230
1.0
 40
0.4109208928570697
 41
0.00987333085709
 42
0.029550224168565
  0
ARC
  5
284
330
77
100
AcDbEntity
  8
MaVisibleEdge
100
AcDbCircle
 10
104.7812376798848
 20
503.4904059910736
 30
0.0
 40
59.99962320597855
100
AcDbArc
 50
94.4995055565017
 51
94.84227266410035
  0
ARC
  5
285
330
77
100
AcDbEntity
  8
MaVisibleEdge
100
AcDbCircle
 10
104.7812376799367
 20
503.4904059904179
 30
0.0
 40
59.98676287107719
100
AcDbArc
 50
94.61473398786571
 51
95.98744372069655
  0
ARC
  5
286
330
77
100
AcDbEntity
  8
MaVisibleEdge
100
AcDbCircle
 10
104.7812376800616
 20
503.4904059893819
 30
0.0
 40
59.99917601570498
100
AcDbArc
 50
96.7883244931081
 51
97.24727173298482
  0
ARC
  5
287
330
77
100
AcDbEntity
  8
MaVisibleEdge
100
AcDbCircle
 10
104.7812376799442
 20
503.4904059903382
 30
0.0
 40
59.98676287115713
100
AcDbArc
 50
96.96160777314672
 51
98.39850541801226
  0
LINE
  5
288
330
77
100
AcDbEntity
  8
MaVisibleEdge
100
AcDbLine
 10
99.71648767994388
 20
563.2759819462111
 30
0.0
 11
99.71648767994381
 21
563.272624892579
 31
0.0
  0
ARC
  5
289
330
77
100
AcDbEntity
  8
MaVisibleEdge
100
AcDbCircle
 10
104.7812376798822
 20
503.4904059910989
 30
0.0
 40
59.99972320641449
100
AcDbArc
 50
94.49949804180151
 51
94.84226457430123
  0
LINE
  5
28A
330
77
100
AcDbEntity
  8
MaVisibleEdge
100
AcDbLine
 10
100.0742376799438
 20
563.30511100464
 30
0.0
 11
100.0742376799438
 21
563.3052113142539
 31
0.0
  0
ELLIPSE
  5
28B
330
77
100
AcDbEntity
  8
MaVisibleEdge
100
AcDbEllipse
 10
100.8007674338501
 20
503.4904059903033
 30
0.0
 11
-0.000000000004171
 21
59.8409303566226
 31
0.0
210
0.0
220
0.0
230
1.0
 40
0.4109208928570691
 41
0.0098733143134044
 42
0.0295501746415905
  0
LINE
  5
28C
330
77
100
AcDbEntity
  8
MaVisibleEdge
100
AcDbLine
 10
100.5579876799437
 20
563.3283193830855
 30
0.0
 11
100.5579876799437
 21
563.3284196537942
 31
0.0
  0
ARC
  5
28D
330
77
100
AcDbEntity
  8
MaVisibleEdge
100
AcDbCircle
 10
104.7812376799488
 20
503.4904059902556
 30
0.0
 40
59.98686289313994
100
AcDbArc
 50
93.23821143533249
 51
94.03712963443895
  0
LINE
  5
28E
330
77
100
AcDbEntity
  8
MaVisibleEdge
100
AcDbLine
 10
101.3927376799437
 20
563.3813885128386
 30
0.0
 11
101.3927376799437
 21
563.3814886946978
 31
0.0
  0
LINE
  5
28F
330
77
100
AcDbEntity
  8
MaVisibleEdge
100
AcDbLine
 10
101.3927376799437
 20
563.3910191523747
 30
0.0
 11
101.3927376799437
 21
563.3814886946977
 31
0.0
  0
ARC
  5
290
330
77
100
AcDbEntity
  8
MaVisibleEdge
100
AcDbCircle
 10
104.7812376797958
 20
503.4904059929387
 30
0.0
 40
59.99637813339558
100
AcDbArc
 50
93.23769731746613
 51
93.40902373350587
  0
ELLIPSE
  5
291
330
77
100
AcDbEntity
  8
MaVisibleEdge
100
AcDbEllipse
 10
101.5690769657823
 20
503.4904059903073
 30
0.0
 11
-0.0000000000237816
 21
59.89645911074681
 31
0.0
210
0.0
220
0.0
230
1.0
 40
0.410920892857057
 41
0.0144417942061956
 42
0.0264609757304389
  0
SPLINE
  5
292
330
77
100
AcDbEntity
  8
MaVisibleEdge
100
AcDbSpline
210
0.0
220
0.0
230
1.0
 70
     8
 71
     3
 72
     8
 73
     4
 74
     0
 42
0.0000000001
 43
0.0000000001
 40
0.0
 40
0.0
 40
0.0
 40
0.0
 40
0.0145396777619772
 40
0.0145396777619772
 40
0.0145396777619772
 40
0.0145396777619772
 10
100.917876737001
 20
563.3658970762509
 30
0.0
 10
100.9532000463638
 20
563.368177950072
 30
0.0
 10
100.9862759430658
 20
563.3702516183034
 30
0.0
 10
101.0155233289214
 20
563.3720149116189
 30
0.0
  0
LINE
  5
293
330
77
100
AcDbEntity
  8
MaVisibleEdge
100
AcDbLine
 10
97.21223767994381
 20
563.0103468626034
 30
0.0
 11
97.21223767994381
 21
563.007425643862
 31
0.0
  0
ARC
  5
294
330
77
100
AcDbEntity
  8
MaVisibleEdge
100
AcDbCircle
 10
104.7812376799478
 20
503.4904059903058
 30
0.0
 40
59.99927601598084
100
AcDbArc
 50
96.78831312571738
 51
97.24725958907649
  0
LINE
  5
295
330
77
100
AcDbEntity
  8
MaVisibleEdge
100
AcDbLine
 10
97.68923767994387
 20
563.0689647044254
 30
0.0
 11
97.68923767994387
 21
563.0690654116271
 31
0.0
  0
LINE
  5
296
330
77
100
AcDbEntity
  8
MaVisibleEdge
100
AcDbLine
 10
97.6892376799438
 20
563.0697945068415
 30
0.0
 11
97.68923767994387
 21
563.0690654116271
 31
0.0
  0
LINE
  5
297
330
77
100
AcDbEntity
  8
MaVisibleEdge
100
AcDbLine
 10
101.6312376799437
 20
563.3362235133735
 30
0.0
 11
101.6312376799437
 21
563.4076614348296
 31
0.0
  0
ARC
  5
298
330
77
100
AcDbEntity
  8
MaVisibleEdge
100
AcDbCircle
 10
104.7812376799487
 20
503.490405990277
 30
0.0
 40
59.99637813606176
100
AcDbArc
 50
94.61399280873171
 51
94.84253519726275
  0
LINE
  5
299
330
77
100
AcDbEntity
  8
MaVisibleEdge
100
AcDbLine
 10
99.95498767994384
 20
563.2923516140002
 30
0.0
 11
99.9549876799438
 21
563.2828054294637
 31
0.0
  0
LINE
  5
29A
330
77
100
AcDbEntity
  8
MaVisibleEdge
100
AcDbLine
 10
99.9549876799438
 20
563.2827050822609
 30
0.0
 11
99.9549876799438
 21
563.2828054294637
 31
0.0
  0
ARC
  5
29B
330
77
100
AcDbEntity
  8
MaVisibleEdge
100
AcDbCircle
 10
104.7812376799432
 20
503.4904059903479
 30
0.0
 40
59.98686289304743
100
AcDbArc
 50
94.61472627659196
 51
95.98743370075123
  0
LINE
  5
29C
330
77
100
AcDbEntity
  8
MaVisibleEdge
100
AcDbLine
 10
98.5239876799438
 20
563.1499277969864
 30
0.0
 11
98.5239876799438
 21
563.1500283675201
 31
0.0
  0
LINE
  5
29D
330
77
100
AcDbEntity
  8
MaVisibleEdge
100
AcDbLine
 10
98.5239876799438
 20
563.1500283675201
 30
0.0
 11
98.5239876799438
 21
563.1595957944192
 31
0.0
  0
ARC
  5
29E
330
77
100
AcDbEntity
  8
MaVisibleEdge
100
AcDbCircle
 10
104.7812376798922
 20
503.4904059908314
 30
0.0
 40
59.99637813550432
100
AcDbArc
 50
95.75751461779093
 51
95.98648064104617
  0
LINE
  5
29F
330
77
100
AcDbEntity
  8
MaVisibleEdge
100
AcDbLine
 10
98.76248767994383
 20
563.1841245700634
 30
0.0
 11
98.76248767994383
 21
563.1877647965528
 31
0.0
  0
ARC
  5
2A0
330
77
100
AcDbEntity
  8
MaVisibleEdge
100
AcDbCircle
 10
104.7812376798201
 20
503.4904059913213
 30
0.0
 40
59.9963781350095
100
AcDbArc
 50
96.96048655581435
 51
97.2476115173611
  0
LINE
  5
2A1
330
77
100
AcDbEntity
  8
MaVisibleEdge
100
AcDbLine
 10
97.51058767994379
 20
563.0446085122043
 30
0.0
 11
97.51058767994379
 21
563.0350226095417
 31
0.0
  0
LINE
  5
2A2
330
77
100
AcDbEntity
  8
MaVisibleEdge
100
AcDbLine
 10
97.51058767994379
 20
563.0349218447638
 30
0.0
 11
97.51058767994379
 21
563.0350226095417
 31
0.0
  0
ARC
  5
2A3
330
77
100
AcDbEntity
  8
MaVisibleEdge
100
AcDbCircle
 10
104.7812376799402
 20
503.4904059903683
 30
0.0
 40
59.98686289302684
100
AcDbArc
 50
96.96159610792332
 51
98.39849131320798
  0
LINE
  5
2A4
330
77
100
AcDbEntity
  8
MaVisibleEdge
100
AcDbLine
 10
96.01973767994381
 20
562.8338794100028
 30
0.0
 11
96.01973767994381
 21
562.8339805161488
 31
0.0
  0
LINE
  5
2A5
330
77
100
AcDbEntity
  8
MaVisibleEdge
100
AcDbLine
 10
96.0197376799438
 20
562.8339805161488
 30
0.0
 11
96.0197376799438
 21
562.8435988883444
 31
0.0
  0
ARC
  5
2A6
330
77
100
AcDbEntity
  8
MaVisibleEdge
100
AcDbCircle
 10
104.7812376799099
 20
503.4904059905641
 30
0.0
 40
59.99637813577186
100
AcDbArc
 50
98.16698468336941
 51
98.39714971801436
  0
LINE
  5
2A7
330
77
100
AcDbEntity
  8
MaVisibleEdge
100
AcDbLine
 10
96.25823767994383
 20
562.8783160431254
 30
0.0
 11
96.25823767994383
 21
562.881975013226
 31
0.0
  0
ARC
  5
2A8
330
77
100
AcDbEntity
  8
MaVisibleEdge
100
AcDbCircle
 10
104.7812376799444
 20
503.490405990336
 30
0.0
 40
59.92866071422505
100
AcDbArc
 50
93.01299767254256
 51
98.63727454022892
  0
LINE
  5
2A9
330
77
100
AcDbEntity
  8
MaVisibleEdge
100
AcDbLine
 10
95.78123767994382
 20
562.8115657901974
 30
0.0
 11
95.78123767994377
 21
562.7394091465133
 31
0.0
  0
ARC
  5
2AA
330
77
100
AcDbEntity
  8
MaVisibleEdge
100
AcDbCircle
 10
104.7812376799488
 20
503.4904059903979
 30
0.0
 40
59.98676287109721
100
AcDbArc
 50
84.07608170022506
 51
85.33653748372508
  0
ELLIPSE
  5
2AB
330
77
100
AcDbEntity
  8
MaVisibleEdge
100
AcDbEllipse
 10
106.5808475765616
 20
503.4904059902528
 30
0.0
 11
-0.0000000000049755
 21
59.93487841318054
 31
0.0
210
0.0
220
0.0
230
1.0
 40
0.7646617174611658
 41
6.211005651571066
 42
6.226412606716846
  0
ARC
  5
2AC
330
77
100
AcDbEntity
  8
MaVisibleEdge
100
AcDbCircle
 10
104.781237679939
 20
503.4904059902657
 30
0.0
 40
59.98676287122976
100
AcDbArc
 50
85.56505855041091
 51
86.76178315951913
  0
ARC
  5
2AD
330
77
100
AcDbEntity
  8
MaVisibleEdge
100
AcDbCircle
 10
104.7812376799058
 20
503.4904059900538
 30
0.0
 40
59.99942597887798
100
AcDbArc
 50
82.24217281131585
 51
82.70164010395767
  0
ARC
  5
2AE
330
77
100
AcDbEntity
  8
MaVisibleEdge
100
AcDbCircle
 10
104.7812376799468
 20
503.4904059903683
 30
0.0
 40
59.98676287112683
100
AcDbArc
 50
81.60149458198693
 51
83.84700956480616
  0
ARC
  5
2AF
330
77
100
AcDbEntity
  8
MaVisibleEdge
100
AcDbCircle
 10
104.7812376799514
 20
503.490405990422
 30
0.0
 40
59.98686289297305
100
AcDbArc
 50
84.07609161309485
 51
85.33654527678461
  0
LINE
  5
2B0
330
77
100
AcDbEntity
  8
MaVisibleEdge
100
AcDbLine
 10
109.6583376799435
 20
563.2785788621565
 30
0.0
 11
109.6583376799435
 21
563.2786792162847
 31
0.0
  0
LINE
  5
2B1
330
77
100
AcDbEntity
  8
MaVisibleEdge
100
AcDbLine
 10
110.9723376799435
 20
563.1568287132604
 30
0.0
 11
110.9723376799435
 21
563.1569292721621
 31
0.0
  0
LINE
  5
2B2
330
77
100
AcDbEntity
  8
MaVisibleEdge
100
AcDbLine
 10
110.9723376799436
 20
563.16649559269
 30
0.0
 11
110.9723376799436
 21
563.1569292721621
 31
0.0
  0
ARC
  5
2B3
330
77
100
AcDbEntity
  8
MaVisibleEdge
100
AcDbCircle
 10
104.7812376797962
 20
503.4904059888924
 30
0.0
 40
59.99637813745366
100
AcDbArc
 50
84.07703448826024
 51
84.30597455602162
  0
ELLIPSE
  5
2B4
330
77
100
AcDbEntity
  8
MaVisibleEdge
100
AcDbEllipse
 10
106.9284473637789
 20
503.490405990234
 30
0.0
 11
-0.0000000000036371
 21
59.90741325083355
 31
0.0
210
0.0
220
0.0
230
1.0
 40
0.7646617174611531
 41
6.200018494545878
 42
6.217142588090356
  0
ARC
  5
2B5
330
77
100
AcDbEntity
  8
MaVisibleEdge
100
AcDbCircle
 10
104.7812376799677
 20
503.4904059905247
 30
0.0
 40
59.99637813581223
100
AcDbArc
 50
82.06304773305397
 51
82.7012673254978
  0
LINE
  5
2B6
330
77
100
AcDbEntity
  8
MaVisibleEdge
100
AcDbLine
 10
112.4033376799436
 20
563.003822203327
 30
0.0
 11
112.4033376799435
 21
563.0006486467745
 31
0.0
  0
ARC
  5
2B7
330
77
100
AcDbEntity
  8
MaVisibleEdge
100
AcDbCircle
 10
104.7812376799684
 20
503.490405990525
 30
0.0
 40
59.99952597919277
100
AcDbArc
 50
82.24218582082761
 51
82.70165233430551
  0
LINE
  5
2B8
330
77
100
AcDbEntity
  8
MaVisibleEdge
100
AcDbLine
 10
112.8803376799435
 20
562.940685190275
 30
0.0
 11
112.8803376799435
 21
562.9407861147784
 31
0.0
  0
LINE
  5
2B9
330
77
100
AcDbEntity
  8
MaVisibleEdge
100
AcDbLine
 10
112.8803376799435
 20
562.9412645139157
 30
0.0
 11
112.8803376799435
 21
562.9407861147784
 31
0.0
  0
LINE
  5
2BA
330
77
100
AcDbEntity
  8
MaVisibleEdge
100
AcDbLine
 10
113.7812376799437
 20
562.7394091465133
 30
0.0
 11
113.7812376799437
 21
562.8115657901974
 31
0.0
  0
LINE
  5
2BB
330
77
100
AcDbEntity
  8
MaVisibleEdge
100
AcDbLine
 10
109.6583376799435
 20
563.2786792162847
 30
0.0
 11
109.6583376799435
 21
563.2882260595342
 31
0.0
  0
ARC
  5
2BC
330
77
100
AcDbEntity
  8
MaVisibleEdge
100
AcDbCircle
 10
104.7812376796052
 20
503.4904059863105
 30
0.0
 40
59.9963781400422
100
AcDbArc
 50
85.10872797469918
 51
85.33728652369177
  0
ELLIPSE
  5
2BD
330
77
100
AcDbEntity
  8
MaVisibleEdge
100
AcDbEllipse
 10
106.5808475765603
 20
503.4904059902888
 30
0.0
 11
0.0000000000022871
 21
59.93497852163142
 31
0.0
210
0.0
220
0.0
230
1.0
 40
0.7646617174611685
 41
6.210767864503933
 42
6.226412701645534
  0
LINE
  5
2BE
330
77
100
AcDbEntity
  8
MaVisibleEdge
100
AcDbLine
 10
109.1813376799436
 20
563.3288213765091
 30
0.0
 11
109.1813376799436
 21
563.3252161716026
 31
0.0
  0
ARC
  5
2BF
330
77
100
AcDbEntity
  8
MaVisibleEdge
100
AcDbCircle
 10
104.781237680005
 20
503.4904059911248
 30
0.0
 40
59.99637813521134
100
AcDbArc
 50
85.56577073481845
 51
85.79418431057449
  0
LINE
  5
2C0
330
77
100
AcDbEntity
  8
MaVisibleEdge
100
AcDbLine
 10
109.4198376799436
 20
563.3071994473428
 30
0.0
 11
109.4198376799436
 21
563.2976556327557
 31
0.0
  0
LINE
  5
2C1
330
77
100
AcDbEntity
  8
MaVisibleEdge
100
AcDbLine
 10
109.4198376799436
 20
563.2975553104691
 30
0.0
 11
109.4198376799436
 21
563.2976556327556
 31
0.0
  0
ARC
  5
2C2
330
77
100
AcDbEntity
  8
MaVisibleEdge
100
AcDbCircle
 10
104.781237679945
 20
503.4904059903623
 30
0.0
 40
59.98686289303308
100
AcDbArc
 50
85.56506596002021
 51
86.76178856466822
  0
LINE
  5
2C3
330
77
100
AcDbEntity
  8
MaVisibleEdge
100
AcDbLine
 10
108.1697376799436
 20
563.3813885128386
 30
0.0
 11
108.1697376799436
 21
563.3814886946978
 31
0.0
  0
LINE
  5
2C4
330
77
100
AcDbEntity
  8
MaVisibleEdge
100
AcDbLine
 10
108.1697376799436
 20
563.3814886946978
 30
0.0
 11
108.1697376799436
 21
563.3910191523747
 31
0.0
  0
ARC
  5
2C5
330
77
100
AcDbEntity
  8
MaVisibleEdge
100
AcDbCircle
 10
104.7812376799048
 20
503.4904059896836
 30
0.0
 40
59.99637813665607
100
AcDbArc
 50
86.47903810115908
 51
86.76230268253185
  0
LINE
  5
2C6
330
77
100
AcDbEntity
  8
MaVisibleEdge
100
AcDbLine
 10
108.4658376799436
 20
563.3735347686338
 30
0.0
 11
108.4658376799436
 21
563.3771634817939
 31
0.0
  0
LINE
  5
2C7
330
77
100
AcDbEntity
  8
MaVisibleEdge
100
AcDbLine
 10
113.0657376799439
 20
562.9120556576769
 30
0.0
 11
113.0657376799439
 21
562.9142230100142
 31
0.0
  0
ARC
  5
2C8
330
77
100
AcDbEntity
  8
MaVisibleEdge
100
AcDbCircle
 10
104.7812376799336
 20
503.4904059902739
 30
0.0
 40
59.99852472724429
100
AcDbArc
 50
81.60315287967288
 51
82.06333352688472
  0
LINE
  5
2C9
330
77
100
AcDbEntity
  8
MaVisibleEdge
100
AcDbLine
 10
113.5427376799437
 20
562.8457687403706
 30
0.0
 11
113.5427376799437
 21
562.8339805161488
 31
0.0
  0
LINE
  5
2CA
330
77
100
AcDbEntity
  8
MaVisibleEdge
100
AcDbLine
 10
113.5427376799437
 20
562.8338794100027
 30
0.0
 11
113.5427376799437
 21
562.8339805161488
 31
0.0
  0
ARC
  5
2CB
330
77
100
AcDbEntity
  8
MaVisibleEdge
100
AcDbCircle
 10
104.7812376799438
 20
503.4904059903401
 30
0.0
 40
59.98686289305524
100
AcDbArc
 50
81.60150868679274
 51
83.84701986390458
  0
LINE
  5
2CC
330
77
100
AcDbEntity
  8
MaVisibleEdge
100
AcDbLine
 10
111.2108376799435
 20
563.1315995028798
 30
0.0
 11
111.2108376799435
 21
563.1317001043196
 31
0.0
  0
LINE
  5
2CD
330
77
100
AcDbEntity
  8
MaVisibleEdge
100
AcDbLine
 10
111.2108376799435
 20
563.1317001043196
 30
0.0
 11
111.2108376799435
 21
563.1412704708966
 31
0.0
  0
ARC
  5
2CE
330
77
100
AcDbEntity
  8
MaVisibleEdge
100
AcDbCircle
 10
104.7812376798737
 20
503.490405989715
 30
0.0
 40
59.99637813662737
100
AcDbArc
 50
83.61886573544335
 51
83.84799947563262
  0
LINE
  5
2CF
330
77
100
AcDbEntity
  8
MaVisibleEdge
100
AcDbLine
 10
111.4493376799435
 20
563.1150806798318
 30
0.0
 11
111.4493376799435
 21
563.1187251213555
 31
0.0
  0
ARC
  5
2D0
330
77
100
AcDbEntity
  8
MaVisibleEdge
100
AcDbCircle
 10
104.7812376799437
 20
503.4904059903417
 30
0.0
 40
59.92866071421939
100
AcDbArc
 50
81.3627254597711
 51
86.98700232745791
  0
LINE
  5
2D1
330
77
100
AcDbEntity
  8
MaVisibleEdge
100
AcDbLine
 10
107.9312376799436
 20
563.4076614348296
 30
0.0
 11
107.9312376799436
 21
563.3362235133735
 31
0.0
  0
ARC
  5
2D2
330
77
100
AcDbEntity
  8
MaVisibleEdge
100
AcDbCircle
 10
104.7812376799428
 20
503.4904059904425
 30
0.0
 40
59.98676287105293
100
AcDbArc
 50
90.17407460214355
 51
91.25622963973498
  0
ELLIPSE
  5
2D3
330
77
100
AcDbEntity
  8
MaVisibleEdge
100
AcDbEllipse
 10
103.6118301009495
 20
503.4904059893537
 30
0.0
 11
0.000000000001731
 21
59.9876638060954
 31
0.0
210
0.0
220
0.0
230
1.0
 40
0.2618629776096586
 41
6.277437077667054
 42
6.283458159068627
  0
ARC
  5
2D4
330
77
100
AcDbEntity
  8
MaVisibleEdge
100
AcDbCircle
 10
104.7812376799432
 20
503.4904059903701
 30
0.0
 40
59.99914247517714
100
AcDbArc
 50
91.12088242448932
 51
91.61889808098072
  0
ELLIPSE
  5
2D5
330
77
100
AcDbEntity
  8
MaVisibleEdge
100
AcDbEllipse
 10
103.2786118123326
 20
503.49040599168
 30
0.0
 11
-0.0000000000256785
 21
59.97969563667776
 31
0.0
210
0.0
220
0.0
230
1.0
 40
0.2618629776096658
 41
0.0122519803946339
 42
0.018274540636793
  0
ARC
  5
2D6
330
77
100
AcDbEntity
  8
MaVisibleEdge
100
AcDbCircle
 10
104.7812376799436
 20
503.4904059903488
 30
0.0
 40
59.98676287114657
100
AcDbArc
 50
91.48409592271148
 51
92.56684316698882
  0
ARC
  5
2D7
330
77
100
AcDbEntity
  8
MaVisibleEdge
100
AcDbCircle
 10
104.7812376799433
 20
503.4904059903232
 30
0.0
 40
59.98676287117214
100
AcDbArc
 50
87.4331568330124
 51
88.45893397869408
  0
ELLIPSE
  5
2D8
330
77
100
AcDbEntity
  8
MaVisibleEdge
100
AcDbEllipse
 10
105.5012720658939
 20
503.4904059903297
 30
0.0
 11
-0.0000000000029267
 21
59.99430734126857
 31
0.0
210
0.0
220
0.0
230
1.0
 40
0.476914803850683
 41
6.251962206766765
 42
6.275776298603974
  0
ARC
  5
2D9
330
77
100
AcDbEntity
  8
MaVisibleEdge
100
AcDbCircle
 10
104.7812376799432
 20
503.4904059903026
 30
0.0
 40
59.98676287119282
100
AcDbArc
 50
88.92110518246999
 51
89.94627334572369
  0
LINE
  5
2DA
330
77
100
AcDbEntity
  8
MaVisibleEdge
100
AcDbLine
 10
104.8374876799435
 20
563.4772425104277
 30
0.0
 11
104.8374876799435
 21
563.4867577575534
 31
0.0
  0
LINE
  5
2DB
330
77
100
AcDbEntity
  8
MaVisibleEdge
100
AcDbLine
 10
104.8374876799435
 20
563.4771424884838
 30
0.0
 11
104.8374876799435
 21
563.4772425104277
 31
0.0
  0
ARC
  5
2DC
330
77
100
AcDbEntity
  8
MaVisibleEdge
100
AcDbCircle
 10
104.7812376799438
 20
503.4904059903491
 30
0.0
 40
59.98686289304635
100
AcDbArc
 50
88.92110698162758
 51
89.94627343530787
  0
LINE
  5
2DD
330
77
100
AcDbEntity
  8
MaVisibleEdge
100
AcDbLine
 10
105.9107376799435
 20
563.4665341540538
 30
0.0
 11
105.9107376799435
 21
563.4666341936893
 31
0.0
  0
LINE
  5
2DE
330
77
100
AcDbEntity
  8
MaVisibleEdge
100
AcDbLine
 10
105.9107376799435
 20
563.4761511235608
 30
0.0
 11
105.9107376799435
 21
563.4666341936893
 31
0.0
  0
ARC
  5
2DF
330
77
100
AcDbEntity
  8
MaVisibleEdge
100
AcDbCircle
 10
104.7812376799576
 20
503.4904059910554
 30
0.0
 40
59.99637813528294
100
AcDbArc
 50
88.92127811099852
 51
89.14907503013376
  0
LINE
  5
2E0
330
77
100
AcDbEntity
  8
MaVisibleEdge
100
AcDbLine
 10
105.6722376799435
 20
563.4837899505754
 30
0.0
 11
105.6722376799435
 21
563.4801676871306
 31
0.0
  0
ELLIPSE
  5
2E1
330
77
100
AcDbEntity
  8
MaVisibleEdge
100
AcDbEllipse
 10
105.5012720658924
 20
503.4904059903224
 30
0.0
 11
-0.0000000000008211
 21
59.99440735059785
 31
0.0
210
0.0
220
0.0
230
1.0
 40
0.4769148038506838
 41
6.251962258831915
 42
6.277210006228999
  0
LINE
  5
2E2
330
77
100
AcDbEntity
  8
MaVisibleEdge
100
AcDbLine
 10
106.3944876799435
 20
563.4554720221366
 30
0.0
 11
106.3944876799435
 21
563.4555720802269
 31
0.0
  0
ARC
  5
2E3
330
77
100
AcDbEntity
  8
MaVisibleEdge
100
AcDbCircle
 10
104.7812376799444
 20
503.4904059903575
 30
0.0
 40
59.98686289303785
100
AcDbArc
 50
87.43316111582398
 51
88.45893654888248
  0
LINE
  5
2E4
330
77
100
AcDbEntity
  8
MaVisibleEdge
100
AcDbLine
 10
107.4677376799435
 20
563.4169813764758
 30
0.0
 11
107.4677376799435
 21
563.4170814988331
 31
0.0
  0
LINE
  5
2E5
330
77
100
AcDbEntity
  8
MaVisibleEdge
100
AcDbLine
 10
107.4677376799435
 20
563.426606296897
 30
0.0
 11
107.4677376799435
 21
563.4170814988331
 31
0.0
  0
ARC
  5
2E6
330
77
100
AcDbEntity
  8
MaVisibleEdge
100
AcDbCircle
 10
104.7812376800555
 20
503.4904059929548
 30
0.0
 40
59.99637813338133
100
AcDbArc
 50
87.43356848115366
 51
87.66154190895717
  0
LINE
  5
2E7
330
77
100
AcDbEntity
  8
MaVisibleEdge
100
AcDbLine
 10
107.2292376799435
 20
563.4404459903286
 30
0.0
 11
107.2292376799435
 21
563.4368211078241
 31
0.0
  0
ELLIPSE
  5
2E8
330
77
100
AcDbEntity
  8
MaVisibleEdge
100
AcDbEllipse
 10
103.6118301009267
 20
503.4904059902473
 30
0.0
 11
0.0000000000270013
 21
59.98776382559967
 31
0.0
210
0.0
220
0.0
230
1.0
 40
0.2618629776096593
 41
6.277278780222633
 42
6.283458158613853
  0
LINE
  5
2E9
330
77
100
AcDbEntity
  8
MaVisibleEdge
100
AcDbLine
 10
103.6075439939365
 20
563.4780675624638
 30
0.0
 11
103.6075439939365
 21
563.4781675828653
 31
0.0
  0
ARC
  5
2EA
330
77
100
AcDbEntity
  8
MaVisibleEdge
100
AcDbCircle
 10
104.781237679923
 20
503.4904059912726
 30
0.0
 40
59.99637813506573
100
AcDbArc
 50
91.0282183970993
 51
91.25602827897486
  0
LINE
  5
2EB
330
77
100
AcDbEntity
  8
MaVisibleEdge
100
AcDbLine
 10
103.4661126799435
 20
563.4628510462538
 30
0.0
 11
103.4661126799435
 21
563.4723685763717
 31
0.0
  0
LINE
  5
2EC
330
77
100
AcDbEntity
  8
MaVisibleEdge
100
AcDbLine
 10
103.4661126799434
 20
563.4627510003078
 30
0.0
 11
103.4661126799434
 21
563.4628510462538
 31
0.0
  0
ARC
  5
2ED
330
77
100
AcDbEntity
  8
MaVisibleEdge
100
AcDbCircle
 10
104.7812376799439
 20
503.4904059903356
 30
0.0
 40
59.98686289305976
100
AcDbArc
 50
90.17407431189173
 51
91.25622754476495
  0
LINE
  5
2EE
330
77
100
AcDbEntity
  8
MaVisibleEdge
100
AcDbLine
 10
104.5989876799435
 20
563.47689200759
 30
0.0
 11
104.5989876799435
 21
563.4769920299516
 31
0.0
  0
LINE
  5
2EF
330
77
100
AcDbEntity
  8
MaVisibleEdge
100
AcDbLine
 10
104.5989876799435
 20
563.4865073168031
 30
0.0
 11
104.5989876799435
 21
563.4769920299516
 31
0.0
  0
ARC
  5
2F0
330
77
100
AcDbEntity
  8
MaVisibleEdge
100
AcDbCircle
 10
104.7812376799599
 20
503.4904059870616
 30
0.0
 40
59.99637813927699
100
AcDbArc
 50
90.17404670415647
 51
90.40181420256102
  0
ELLIPSE
  5
2F1
330
77
100
AcDbEntity
  8
MaVisibleEdge
100
AcDbEllipse
 10
104.2227302967882
 20
503.4904059904715
 30
0.0
 11
-0.0000000000009979
 21
59.99720914338287
 31
0.0
210
0.0
220
0.0
230
1.0
 40
0.2618629776096559
 41
6.274417009238923
 42
6.285802425032847
  0
LINE
  5
2F2
330
77
100
AcDbEntity
  8
MaVisibleEdge
100
AcDbLine
 10
107.7062376799435
 20
563.3476423949739
 30
0.0
 11
107.7062376799435
 21
563.4190667045611
 31
0.0
  0
ARC
  5
2F3
330
77
100
AcDbEntity
  8
MaVisibleEdge
100
AcDbCircle
 10
104.7812376799447
 20
503.4904059906592
 30
0.0
 40
59.99637813567928
100
AcDbArc
 50
89.71851635931647
 51
89.94628195617888
  0
LINE
  5
2F4
330
77
100
AcDbEntity
  8
MaVisibleEdge
100
AcDbLine
 10
105.0759876799435
 20
563.4860600985771
 30
0.0
 11
105.0759876799435
 21
563.4896820062864
 31
0.0
  0
ELLIPSE
  5
2F5
330
77
100
AcDbEntity
  8
MaVisibleEdge
100
AcDbEllipse
 10
106.1801210325246
 20
503.4904060067082
 30
0.0
 11
-0.0000000002962858
 21
59.97888793885204
 31
0.0
210
0.0
220
0.0
230
1.0
 40
0.4769148038506247
 41
6.267352815493916
 42
6.2687870134576
  0
LINE
  5
2F6
330
77
100
AcDbEntity
  8
MaVisibleEdge
100
AcDbLine
 10
106.6329876799435
 20
563.4617767148593
 30
0.0
 11
106.6329876799435
 21
563.461824365577
 31
0.0
  0
ARC
  5
2F7
330
77
100
AcDbEntity
  8
MaVisibleEdge
100
AcDbCircle
 10
104.7812376799465
 20
503.4904059902372
 30
0.0
 40
59.99924247657262
100
AcDbArc
 50
91.12088055606887
 51
91.61889538203041
  0
LINE
  5
2F8
330
77
100
AcDbEntity
  8
MaVisibleEdge
100
AcDbLine
 10
103.0861813659506
 20
563.4655998779184
 30
0.0
 11
103.0861813659506
 21
563.4656999191122
 31
0.0
  0
ELLIPSE
  5
2F9
330
77
100
AcDbEntity
  8
MaVisibleEdge
100
AcDbEllipse
 10
103.2786118123317
 20
503.4904059899254
 30
0.0
 11
-0.0000000000174053
 21
59.97979567211786
 31
0.0
210
0.0
220
0.0
230
1.0
 40
0.2618629776096637
 41
0.0122519599599915
 42
0.0184328621968595
  0
ARC
  5
2FA
330
77
100
AcDbEntity
  8
MaVisibleEdge
100
AcDbCircle
 10
104.7812376799518
 20
503.490405990186
 30
0.0
 40
59.99637813615274
100
AcDbArc
 50
91.48385802224053
 51
91.71171123547333
  0
LINE
  5
2FB
330
77
100
AcDbEntity
  8
MaVisibleEdge
100
AcDbLine
 10
103.2276126799436
 20
563.4666649500075
 30
0.0
 11
103.2276126799436
 21
563.4571465146473
 31
0.0
  0
LINE
  5
2FC
330
77
100
AcDbEntity
  8
MaVisibleEdge
100
AcDbLine
 10
103.2276126799436
 20
563.457046459184
 30
0.0
 11
103.2276126799436
 21
563.4571465146473
 31
0.0
  0
ARC
  5
2FD
330
77
100
AcDbEntity
  8
MaVisibleEdge
100
AcDbCircle
 10
104.7812376799447
 20
503.4904059903164
 30
0.0
 40
59.98686289307894
100
AcDbArc
 50
91.48409344758169
 51
92.56683888417699
  0
LINE
  5
2FE
330
77
100
AcDbEntity
  8
MaVisibleEdge
100
AcDbLine
 10
102.0947376799435
 20
563.4169813764758
 30
0.0
 11
102.0947376799435
 21
563.4170814988331
 31
0.0
  0
LINE
  5
2FF
330
77
100
AcDbEntity
  8
MaVisibleEdge
100
AcDbLine
 10
102.0947376799435
 20
563.4170814988331
 30
0.0
 11
102.0947376799435
 21
563.426606296897
 31
0.0
  0
ARC
  5
300
330
77
100
AcDbEntity
  8
MaVisibleEdge
100
AcDbCircle
 10
104.7812376800246
 20
503.4904059884433
 30
0.0
 40
59.99637813789694
100
AcDbArc
 50
92.33845809104956
 51
92.56643151883388
  0
ELLIPSE
  5
301
330
77
100
AcDbEntity
  8
MaVisibleEdge
100
AcDbEllipse
 10
102.6677116164855
 20
503.4904059900259
 30
0.0
 11
-0.0000000000060341
 21
59.96002122422176
 31
0.0
210
0.0
220
0.0
230
1.0
 40
0.2618629776096588
 41
0.0099100958123837
 42
0.0213039068009024
  0
ARC
  5
302
330
77
100
AcDbEntity
  8
MaVisibleEdge
100
AcDbCircle
 10
104.7812376799438
 20
503.4904059903437
 30
0.0
 40
59.92866071421733
100
AcDbArc
 50
87.20239424579503
 51
92.79760575420533
  0
LINE
  5
303
330
77
100
AcDbEntity
  8
MaVisibleEdge
100
AcDbLine
 10
101.8562376799435
 20
563.419066704561
 30
0.0
 11
101.8562376799435
 21
563.3476423949739
 31
0.0
  0
ARC
  5
304
330
77
100
AcDbEntity
  8
MaVisibleEdge
100
AcDbCircle
 10
104.7812376799437
 20
503.4904059903419
 30
0.0
 40
59.99990000000003
100
AcDbArc
 50
98.16650202607988
 51
98.62694104656362
  0
ARC
  5
305
330
77
100
AcDbEntity
  8
MaVisibleEdge
100
AcDbCircle
 10
104.7812376799437
 20
503.4904059903419
 30
0.0
 40
59.99990000000003
100
AcDbArc
 50
95.75717552213523
 51
96.78824219676213
  0
ARC
  5
306
330
77
100
AcDbEntity
  8
MaVisibleEdge
100
AcDbCircle
 10
104.7812376799437
 20
503.4904059903419
 30
0.0
 40
59.99990000000003
100
AcDbArc
 50
93.00941697450397
 51
93.64587676717876
  0
ARC
  5
307
330
77
100
AcDbEntity
  8
MaVisibleEdge
100
AcDbCircle
 10
104.7812376799437
 20
503.4904059903419
 30
0.0
 40
59.99990000000003
100
AcDbArc
 50
81.37305895343647
 51
82.24223447832452
  0
ARC
  5
308
330
77
100
AcDbEntity
  8
MaVisibleEdge
100
AcDbCircle
 10
104.7812376799437
 20
503.4904059903419
 30
0.0
 40
59.99990000000003
100
AcDbArc
 50
86.47924503451488
 51
86.99058302549632
  0
ARC
  5
309
330
77
100
AcDbEntity
  8
MaVisibleEdge
100
AcDbCircle
 10
104.7812376799437
 20
503.4904059903419
 30
0.0
 40
59.99990000000003
100
AcDbArc
 50
83.619241850405
 51
84.93193579570048
  0
ARC
  5
30A
330
77
100
AcDbEntity
  8
MaVisibleEdge
100
AcDbCircle
 10
104.7812376799437
 20
503.4904059903419
 30
0.0
 40
59.99990000000003
100
AcDbArc
 50
92.19577906787517
 51
92.79428145385097
  0
ARC
  5
30B
330
77
100
AcDbEntity
  8
MaVisibleEdge
100
AcDbCircle
 10
104.7812376799437
 20
503.4904059903419
 30
0.0
 40
59.99990000000003
100
AcDbArc
 50
89.71853288192921
 51
90.54422558866274
  0
ARC
  5
30C
330
77
100
AcDbEntity
  8
MaVisibleEdge
100
AcDbCircle
 10
104.7812376799437
 20
503.4904059903419
 30
0.0
 40
59.99990000000003
100
AcDbArc
 50
89.10994890839635
 51
89.14912498125195
  0
ARC
  5
30D
330
77
100
AcDbEntity
  8
MaVisibleEdge
100
AcDbCircle
 10
104.7812376799437
 20
503.4904059903419
 30
0.0
 40
59.99990000000003
100
AcDbArc
 50
87.20571854614957
 51
87.66167924763223
  0
LINE
  5
30E
330
77
100
AcDbEntity
  8
MaVisibleEdge thinFlag
100
AcDbLine
 10
87.93192261145067
 20
561.0759995161766
 30
0.0
 11
121.6305527484369
 21
561.0759995161766
 31
0.0
  0
LINE
  5
30F
330
77
100
AcDbEntity
  8
MaVisibleEdge thinFlag
100
AcDbLine
 10
122.7812376799437
 20
559.5403836888209
 30
0.0
 11
86.78123767994383
 21
559.5403836888209
 31
0.0
  0
ARC
  5
310
330
77
100
AcDbEntity
  8
MaVisibleEdge
100
AcDbCircle
 10
121.1812376799437
 20
559.5403836888209
 30
0.0
 40
1.6
100
AcDbArc
 50
0.0
 51
73.69073455358815
  0
ARC
  5
311
330
77
100
AcDbEntity
  8
MaVisibleEdge
100
AcDbCircle
 10
88.38123767994384
 20
559.5403836888209
 30
0.0
 40
1.600000000000001
100
AcDbArc
 50
106.3092654464118
 51
180.0
  0
LINE
  5
312
330
77
100
AcDbEntity
  8
MaVisibleEdge
100
AcDbLine
 10
122.7812376799437
 20
558.4904059903418
 30
0.0
 11
86.78123767994383
 21
558.4904059903418
 31
0.0
  0
ARC
  5
313
330
77
100
AcDbEntity
  8
MaVisibleEdge
100
AcDbCircle
 10
104.7812376799437
 20
503.4904059903419
 30
0.0
 40
60.00000000000003
100
AcDbArc
 50
86.99058804580877
 51
87.20572320698108
  0
ARC
  5
314
330
77
100
AcDbEntity
  8
MaVisibleEdge
100
AcDbCircle
 10
104.7812376799437
 20
503.4904059903419
 30
0.0
 40
60.0
100
AcDbArc
 50
73.69073455358844
 51
81.37307344132155
  0
ARC
  5
315
330
77
100
AcDbEntity
  8
MaVisibleEdge
100
AcDbCircle
 10
104.7812376799437
 20
503.4904059903419
 30
0.0
 40
60.00000000000003
100
AcDbArc
 50
98.62692655867856
 51
106.3092654464115
  0
ARC
  5
316
330
77
100
AcDbEntity
  8
MaVisibleEdge
100
AcDbCircle
 10
104.7812376799437
 20
503.4904059903419
 30
0.0
 40
60.00000000000003
100
AcDbArc
 50
92.79427679301941
 51
93.00941195419147
  0
ARC
  5
317
330
77
100
AcDbEntity
  8
MaVisibleEdge
100
AcDbCircle
 10
104.7812376799437
 20
503.4904059903419
 30
0.0
 40
60.00000000000003
100
AcDbArc
 50
90.57260922834023
 51
92.16737162102823
  0
ARC
  5
318
330
77
100
AcDbEntity
  8
MaVisibleEdge
100
AcDbCircle
 10
104.7812376799437
 20
503.4904059903419
 30
0.0
 40
60.00000000000003
100
AcDbArc
 50
88.27061791361499
 51
89.10995039193414
  0
ARC
  5
319
330
77
100
AcDbEntity
  8
MaVisibleEdge
100
AcDbCircle
 10
104.7812376799437
 20
503.4904059903419
 30
0.0
 40
60.00000000000003
100
AcDbArc
 50
87.66168314699852
 51
88.23142816998943
  0
ARC
  5
31A
330
77
100
AcDbEntity
  8
MaVisibleEdge
100
AcDbCircle
 10
104.7812376799437
 20
503.4904059903419
 30
0.0
 40
60.00000000000003
100
AcDbArc
 50
89.14912639948125
 51
89.71853335104491
  0
ARC
  5
31B
330
77
100
AcDbEntity
  8
MaVisibleEdge
100
AcDbCircle
 10
104.7812376799437
 20
503.4904059903419
 30
0.0
 40
60.00000000000003
100
AcDbArc
 50
82.24224748752911
 51
83.61925252918512
  0
ARC
  5
31C
330
77
100
AcDbEntity
  8
MaVisibleEdge
100
AcDbCircle
 10
104.7812376799437
 20
503.4904059903419
 30
0.0
 40
60.00000000000001
100
AcDbArc
 50
85.05654305580774
 51
86.47925090983664
  0
ARC
  5
31D
330
77
100
AcDbEntity
  8
MaVisibleEdge
100
AcDbCircle
 10
104.7812376799437
 20
503.4904059903419
 30
0.0
 40
60.00000000000003
100
AcDbArc
 50
96.78823082979002
 51
98.16648832231797
  0
LINE
  5
31E
330
77
100
AcDbEntity
  8
MaVisibleEdge
100
AcDbLine
 10
86.78123767994383
 20
558.4904059903418
 30
0.0
 11
86.78123767994383
 21
559.5403836888209
 31
0.0
  0
LINE
  5
31F
330
77
100
AcDbEntity
  8
MaVisibleEdge
100
AcDbLine
 10
122.7812376799437
 20
558.4904059903418
 30
0.0
 11
122.7812376799437
 21
559.5403836888209
 31
0.0
  0
ARC
  5
320
330
77
100
AcDbEntity
  8
MaVisibleEdge
100
AcDbCircle
 10
104.7812376799437
 20
503.4904059903419
 30
0.0
 40
60.00000000000003
100
AcDbArc
 50
93.68867327019835
 51
95.7571658944186
  0
LINE
  5
321
330
77
100
AcDbEntity
  8
MaVisibleEdge
100
AcDbLine
 10
86.78123767994387
 20
558.4904059903418
 30
0.0
 11
122.7812376799436
 21
558.4904059903418
 31
0.0
  0
LINE
  5
322
330
77
100
AcDbEntity
  8
MaVisibleEdge
100
AcDbLine
 10
86.78123767994387
 20
549.8904059903418
 30
0.0
 11
122.7812376799436
 21
549.8904059903418
 31
0.0
  0
LINE
  5
323
330
77
100
AcDbEntity
  8
MaVisibleEdge
100
AcDbLine
 10
86.78123767994387
 20
551.4904059903418
 30
0.0
 11
122.7812376799436
 21
551.4904059903418
 31
0.0
  0
LINE
  5
324
330
77
100
AcDbEntity
  8
MaVisibleEdge
100
AcDbLine
 10
87.28123767994388
 20
540.4904059903418
 30
0.0
 11
122.2812376799436
 21
540.4904059903418
 31
0.0
  0
LINE
  5
325
330
77
100
AcDbEntity
  8
MaVisibleEdge
100
AcDbLine
 10
122.7812376799436
 20
549.8904059903418
 30
0.0
 11
122.7812376799436
 21
541.2904059903418
 31
0.0
  0
LINE
  5
326
330
77
100
AcDbEntity
  8
MaVisibleEdge
100
AcDbLine
 10
86.78123767994387
 20
549.8904059903418
 30
0.0
 11
86.78123767994387
 21
541.2904059903418
 31
0.0
  0
LINE
  5
327
330
77
100
AcDbEntity
  8
MaVisibleEdge
100
AcDbLine
 10
122.7812376799436
 20
558.4904059903418
 30
0.0
 11
122.7812376799436
 21
551.4904059903418
 31
0.0
  0
LINE
  5
328
330
77
100
AcDbEntity
  8
MaVisibleEdge
100
AcDbLine
 10
86.78123767994387
 20
558.4904059903418
 30
0.0
 11
86.78123767994387
 21
551.4904059903418
 31
0.0
  0
LINE
  5
329
330
77
100
AcDbEntity
  8
MaVisibleEdge
100
AcDbLine
 10
122.2812376799436
 20
540.7904059903419
 30
0.0
 11
122.2812376799436
 21
540.4904059903418
 31
0.0
  0
LINE
  5
32A
330
77
100
AcDbEntity
  8
MaVisibleEdge
100
AcDbLine
 10
87.28123767994388
 20
540.7904059903419
 30
0.0
 11
87.28123767994388
 21
540.4904059903418
 31
0.0
  0
LINE
  5
32B
330
77
100
AcDbEntity
  8
MaVisibleEdge thinFlag
100
AcDbLine
 10
86.78123767994387
 20
541.2904059903418
 30
0.0
 11
122.7812376799436
 21
541.2904059903418
 31
0.0
  0
LINE
  5
32C
330
77
100
AcDbEntity
  8
MaVisibleEdge
100
AcDbLine
 10
87.28123767994388
 20
540.7904059903419
 30
0.0
 11
122.2812376799436
 21
540.7904059903419
 31
0.0
  0
ARC
  5
32D
330
77
100
AcDbEntity
  8
MaVisibleEdge
100
AcDbCircle
 10
87.28123767994388
 20
541.2904059903418
 30
0.0
 40
0.5000000000000002
100
AcDbArc
 50
180.0
 51
270.0
  0
ARC
  5
32E
330
77
100
AcDbEntity
  8
MaVisibleEdge
100
AcDbCircle
 10
122.2812376799436
 20
541.2904059903418
 30
0.0
 40
0.5000000000000004
100
AcDbArc
 50
270.0
 51
0.0
  0
ELLIPSE
  5
32F
330
77
100
AcDbEntity
  8
MaVisibleEdge thinFlag
100
AcDbEllipse
 10
87.53123767994381
 20
550.6904059903418
 30
0.0
 11
0.0
 21
0.8000000000000005
 31
0.0
210
0.0
220
0.0
230
1.0
 40
0.937499999999996
 41
0.0000000000000004
 42
3.141592653589793
  0
SPLINE
  5
330
330
77
100
AcDbEntity
  8
MaVisibleEdge
100
AcDbSpline
210
0.0
220
0.0
230
1.0
 70
     8
 71
     3
 72
    26
 73
    22
 74
     0
 42
0.0000000001
 43
0.0000000001
 40
-3.141592653589793
 40
-3.141592653589793
 40
-3.141592653589793
 40
-3.141592653589793
 40
-2.841592653589793
 40
-2.841592653589793
 40
-2.537982922964593
 40
-2.537982922964593
 40
-2.224665726992733
 40
-2.224665726992733
 40
-1.898625022083633
 40
-1.898625022083633
 40
-1.561576977858398
 40
-1.561576977858398
 40
-1.220247157609849
 40
-1.220247157609849
 40
-0.8837883850299972
 40
-0.8837883850299972
 40
-0.5590811178794823
 40
-0.5590811178794823
 40
-0.2474527261078903
 40
-0.2474527261078903
 40
-0.0000000000000006
 40
-0.0000000000000006
 40
-0.0000000000000006
 40
-0.0000000000000006
 10
122.0312376799437
 20
549.8904059903419
 30
0.0
 10
122.1062376799437
 20
549.8904059903419
 30
0.0
 10
122.1812275982553
 20
549.9024951825084
 30
0.0
 10
122.3253901984697
 20
549.9500628817984
 30
0.0
 10
122.3944613323151
 20
549.9858165339722
 30
0.0
 10
122.5214390885243
 20
550.0791975593528
 30
0.0
 10
122.5788950278344
 20
550.1374785546936
 30
0.0
 10
122.6761193441706
 20
550.2728069467023
 30
0.0
 10
122.7150501533249
 20
550.3505016313773
 30
0.0
 10
122.7684268282485
 20
550.5179083251852
 30
0.0
 10
122.7819826363987
 20
550.6079057062387
 30
0.0
 10
122.7804191079871
 20
550.7887987821963
 30
0.0
 10
122.7649302048386
 20
550.8796511357765
 30
0.0
 10
122.7067397445339
 20
551.0494027036561
 30
0.0
 10
122.6644458033321
 20
551.1284188011334
 30
0.0
 10
122.5596135105808
 20
551.2647330989893
 30
0.0
 10
122.4978603306767
 20
551.3226730303252
 30
0.0
 10
122.3629980792934
 20
551.4126776094662
 30
0.0
 10
122.2904729928898
 20
551.4456832507451
 30
0.0
 10
122.1549601883614
 20
551.4822002040663
 30
0.0
 10
122.0931008614707
 20
551.4904059903418
 30
0.0
 10
122.0312376799437
 20
551.4904059903418
 30
0.0
  0
SPLINE
  5
331
330
77
100
AcDbEntity
  8
MaVisibleEdge
100
AcDbSpline
210
0.0
220
0.0
230
1.0
 70
     8
 71
     3
 72
    26
 73
    22
 74
     0
 42
0.0000000001
 43
0.0000000001
 40
-3.141592653589793
 40
-3.141592653589793
 40
-3.141592653589793
 40
-3.141592653589793
 40
-2.841592653589793
 40
-2.841592653589793
 40
-2.537982922964593
 40
-2.537982922964593
 40
-2.224665726992733
 40
-2.224665726992733
 40
-1.898625022083633
 40
-1.898625022083633
 40
-1.561576977858398
 40
-1.561576977858398
 40
-1.220247157609849
 40
-1.220247157609849
 40
-0.8837883850299972
 40
-0.8837883850299972
 40
-0.5590811178794823
 40
-0.5590811178794823
 40
-0.2474527261078903
 40
-0.2474527261078903
 40
-0.0000000000000006
 40
-0.0000000000000006
 40
-0.0000000000000006
 40
-0.0000000000000006
 10
87.53123767994381
 20
549.8904059903419
 30
0.0
 10
87.45623767994382
 20
549.8904059903419
 30
0.0
 10
87.38124776163223
 20
549.9024951825084
 30
0.0
 10
87.23708516141785
 20
549.9500628817984
 30
0.0
 10
87.16801402757241
 20
549.9858165339722
 30
0.0
 10
87.04103627136319
 20
550.0791975593529
 30
0.0
 10
86.98358033205316
 20
550.1374785546936
 30
0.0
 10
86.88635601571689
 20
550.2728069467023
 30
0.0
 10
86.84742520656264
 20
550.3505016313773
 30
0.0
 10
86.79404853163905
 20
550.5179083251853
 30
0.0
 10
86.78049272348884
 20
550.6079057062387
 30
0.0
 10
86.7820562519004
 20
550.7887987821963
 30
0.0
 10
86.79754515504896
 20
550.8796511357766
 30
0.0
 10
86.85573561535365
 20
551.0494027036561
 30
0.0
 10
86.89802955655546
 20
551.1284188011334
 30
0.0
 10
87.00286184930668
 20
551.2647330989893
 30
0.0
 10
87.06461502921085
 20
551.3226730303253
 30
0.0
 10
87.19947728059409
 20
551.4126776094662
 30
0.0
 10
87.2720023669977
 20
551.4456832507451
 30
0.0
 10
87.40751517152615
 20
551.4822002040664
 30
0.0
 10
87.46937449841684
 20
551.4904059903418
 30
0.0
 10
87.53123767994381
 20
551.4904059903418
 30
0.0
  0
LINE
  5
332
330
77
100
AcDbEntity
  8
MaVisibleEdge thinFlag
100
AcDbLine
 10
89.7250618723468
 20
445.2406894200533
 30
0.0
 11
119.8374134875407
 21
445.2406894200533
 31
0.0
  0
LINE
  5
333
330
77
100
AcDbEntity
  8
MaVisibleEdge
100
AcDbLine
 10
119.0020622486297
 20
444.7904059903418
 30
0.0
 11
90.56041311125781
 21
444.7904059903418
 31
0.0
  0
ARC
  5
334
330
77
100
AcDbEntity
  8
MaVisibleEdge
100
AcDbCircle
 10
90.56041311125781
 20
445.7904059903418
 30
0.0
 40
1.000000000000001
100
AcDbArc
 50
213.3475706805807
 51
270.0
  0
ARC
  5
335
330
77
100
AcDbEntity
  8
MaVisibleEdge
100
AcDbCircle
 10
119.0020622486297
 20
445.7904059903418
 30
0.0
 40
1.0
100
AcDbArc
 50
270.0
 51
326.6524293194193
  0
LINE
  5
336
330
77
100
AcDbEntity
  8
MaVisibleEdge
100
AcDbLine
 10
86.78123767994376
 20
454.2904059903418
 30
0.0
 11
122.7812376799438
 21
454.2904059903418
 31
0.0
  0
LINE
  5
337
330
77
100
AcDbEntity
  8
MaVisibleEdge
100
AcDbLine
 10
87.78123767994374
 20
461.7904059903418
 30
0.0
 11
121.7812376799438
 21
461.7904059903418
 31
0.0
  0
LINE
  5
338
330
77
100
AcDbEntity
  8
MaVisibleEdge
100
AcDbLine
 10
86.78123767994376
 20
460.7904059903418
 30
0.0
 11
122.7812376799438
 21
460.7904059903418
 31
0.0
  0
ARC
  5
339
330
77
100
AcDbEntity
  8
MaVisibleEdge
100
AcDbCircle
 10
104.7613841727451
 20
455.1355876852475
 30
0.0
 40
18.00000000000001
100
AcDbArc
 50
182.6912864356293
 51
213.3475706805802
  0
ARC
  5
33A
330
77
100
AcDbEntity
  8
MaVisibleEdge
100
AcDbCircle
 10
104.8010911871424
 20
455.1355876852475
 30
0.0
 40
18.00000000000002
100
AcDbArc
 50
326.6524293194198
 51
357.3087135643707
  0
LINE
  5
33B
330
77
100
AcDbEntity
  8
MaVisibleEdge
100
AcDbLine
 10
121.7812376799438
 20
462.7904059903418
 30
0.0
 11
121.7812376799438
 21
461.7904059903418
 31
0.0
  0
LINE
  5
33C
330
77
100
AcDbEntity
  8
MaVisibleEdge
100
AcDbLine
 10
87.78123767994374
 20
462.7904059903418
 30
0.0
 11
87.78123767994374
 21
461.7904059903418
 31
0.0
  0
ARC
  5
33D
330
77
100
AcDbEntity
  8
MaVisibleEdge
100
AcDbCircle
 10
87.88122512329616
 20
460.7954172913246
 30
0.0
 40
1.000000000000008
100
AcDbArc
 50
95.73844741039355
 51
180.2871275979756
  0
ARC
  5
33E
330
77
100
AcDbEntity
  8
MaVisibleEdge
100
AcDbCircle
 10
121.6812502365913
 20
460.7954172913246
 30
0.0
 40
1.000000000000008
100
AcDbArc
 50
359.7128724020294
 51
84.2615525896074
  0
LINE
  5
33F
330
77
100
AcDbEntity
  8
MaVisibleEdge
100
AcDbLine
 10
122.7812376799438
 20
460.7904059903418
 30
0.0
 11
122.7812376799438
 21
454.2904059903418
 31
0.0
  0
LINE
  5
340
330
77
100
AcDbEntity
  8
MaVisibleEdge
100
AcDbLine
 10
86.78123767994376
 20
460.7904059903418
 30
0.0
 11
86.78123767994376
 21
454.2904059903418
 31
0.0
  0
LINE
  5
341
330
77
100
AcDbEntity
  8
MaVisibleEdge
100
AcDbLine
 10
95.78123767994378
 20
266.7904059903418
 30
0.0
 11
113.7812376799437
 21
266.7904059903418
 31
0.0
  0
LINE
  5
342
330
77
100
AcDbEntity
  8
MaVisibleEdge
100
AcDbLine
 10
95.78123767994378
 20
266.7904059903418
 30
0.0
 11
95.78123767994378
 21
287.4904059903418
 31
0.0
  0
LINE
  5
343
330
77
100
AcDbEntity
  8
MaVisibleEdge
100
AcDbLine
 10
95.78123767994378
 20
311.7904059903418
 30
0.0
 11
95.78123767994378
 21
444.7904059903418
 31
0.0
  0
LINE
  5
344
330
77
100
AcDbEntity
  8
MaVisibleEdge
100
AcDbLine
 10
113.7812376799437
 20
266.7904059903418
 30
0.0
 11
113.7812376799437
 21
287.4904059903418
 31
0.0
  0
LINE
  5
345
330
77
100
AcDbEntity
  8
MaVisibleEdge
100
AcDbLine
 10
113.7812376799437
 20
311.7904059903418
 30
0.0
 11
113.7812376799437
 21
444.7904059903418
 31
0.0
  0
LINE
  5
346
330
77
100
AcDbEntity
  8
MaVisibleEdge
100
AcDbLine
 10
90.62880959709131
 20
287.4904059903418
 30
0.0
 11
118.9336657627962
 21
287.4904059903418
 31
0.0
  0
LINE
  5
347
330
77
100
AcDbEntity
  8
MaVisibleEdge
100
AcDbLine
 10
83.78123767994379
 20
295.9904059903418
 30
0.0
 11
125.7812376799438
 21
295.9904059903418
 31
0.0
  0
LINE
  5
348
330
77
100
AcDbEntity
  8
MaVisibleEdge
100
AcDbLine
 10
87.18123767994377
 20
311.7904059903418
 30
0.0
 11
122.3812376799437
 21
311.7904059903418
 31
0.0
  0
LINE
  5
349
330
77
100
AcDbEntity
  8
MaVisibleEdge thinFlag
100
AcDbLine
 10
84.18123767994377
 20
308.7904059903418
 30
0.0
 11
125.3812376799438
 21
308.7904059903418
 31
0.0
  0
LINE
  5
34A
330
77
100
AcDbEntity
  8
MaVisibleEdge
100
AcDbLine
 10
85.1812376799438
 20
305.2904059903418
 30
0.0
 11
124.3812376799438
 21
305.2904059903418
 31
0.0
  0
LINE
  5
34B
330
77
100
AcDbEntity
  8
MaVisibleEdge thinFlag
100
AcDbLine
 10
84.18123767994377
 20
306.2904059903418
 30
0.0
 11
125.3812376799438
 21
306.2904059903418
 31
0.0
  0
LINE
  5
34C
330
77
100
AcDbEntity
  8
MaVisibleEdge
100
AcDbLine
 10
90.53123767994376
 20
295.9904059903418
 30
0.0
 11
90.53123767994376
 21
305.2904059903418
 31
0.0
  0
LINE
  5
34D
330
77
100
AcDbEntity
  8
MaVisibleEdge
100
AcDbLine
 10
119.0312376799438
 20
295.9904059903418
 30
0.0
 11
119.0312376799438
 21
305.2904059903418
 31
0.0
  0
LINE
  5
34E
330
77
100
AcDbEntity
  8
MaVisibleEdge
100
AcDbLine
 10
90.62880959709131
 20
287.4904059903418
 30
0.0
 11
83.78123767994379
 21
295.9904059903418
 31
0.0
  0
LINE
  5
34F
330
77
100
AcDbEntity
  8
MaVisibleEdge
100
AcDbLine
 10
118.9336657627962
 20
287.4904059903418
 30
0.0
 11
125.7812376799438
 21
295.9904059903418
 31
0.0
  0
ARC
  5
350
330
77
100
AcDbEntity
  8
MaVisibleEdge
100
AcDbCircle
 10
87.18123767994377
 20
308.7904059903418
 30
0.0
 40
3.000000000000002
100
AcDbArc
 50
90.0
 51
180.0
  0
ARC
  5
351
330
77
100
AcDbEntity
  8
MaVisibleEdge
100
AcDbCircle
 10
122.3812376799437
 20
308.7904059903418
 30
0.0
 40
3.000000000000002
100
AcDbArc
 50
0.0
 51
90.0
  0
ARC
  5
352
330
77
100
AcDbEntity
  8
MaVisibleEdge
100
AcDbCircle
 10
85.1812376799438
 20
306.2904059903418
 30
0.0
 40
1.0
100
AcDbArc
 50
180.0
 51
270.0
  0
ARC
  5
353
330
77
100
AcDbEntity
  8
MaVisibleEdge
100
AcDbCircle
 10
124.3812376799438
 20
306.2904059903418
 30
0.0
 40
1.000000000000001
100
AcDbArc
 50
270.0
 51
0.0
  0
LINE
  5
354
330
77
100
AcDbEntity
  8
MaVisibleEdge
100
AcDbLine
 10
84.18123767994377
 20
306.2904059903418
 30
0.0
 11
84.18123767994377
 21
308.7904059903418
 31
0.0
  0
LINE
  5
355
330
77
100
AcDbEntity
  8
MaVisibleEdge
100
AcDbLine
 10
125.3812376799438
 20
306.2904059903418
 30
0.0
 11
125.3812376799438
 21
308.7904059903418
 31
0.0
  0
ARC
  5
356
330
77
100
AcDbEntity
  8
MaVisibleEdge
100
AcDbCircle
 10
104.7812376799438
 20
493.7904059903417
 30
0.0
 40
30.00000000000003
100
AcDbArc
 50
307.4690894340185
 51
52.5309105659811
  0
ARC
  5
357
330
77
100
AcDbEntity
  8
MaVisibleEdge
100
AcDbCircle
 10
104.7812376799438
 20
493.7904059903417
 30
0.0
 40
30.00000000000003
100
AcDbArc
 50
127.4690894340184
 51
232.530910565981
  0
ARC
  5
358
330
77
100
AcDbEntity
  8
MaVisibleEdge thinFlag
100
AcDbCircle
 10
104.7812376799438
 20
493.7904059903417
 30
0.0
 40
29.21892857307592
100
AcDbArc
 50
308.6524760070087
 51
51.34752399299077
  0
ARC
  5
359
330
77
100
AcDbEntity
  8
MaVisibleEdge thinFlag
100
AcDbCircle
 10
104.7812376799438
 20
493.7904059903417
 30
0.0
 40
29.21892857307592
100
AcDbArc
 50
128.6524760070087
 51
231.3475239929908
  0
LINE
  5
35A
330
77
100
AcDbEntity
  8
MaVisibleEdge
100
AcDbLine
 10
302.4476671588594
 20
462.7904059903418
 30
0.0
 11
266.8476671588593
 21
462.7904059903418
 31
0.0
  0
LINE
  5
35B
330
77
100
AcDbEntity
  8
MaVisibleEdge
100
AcDbLine
 10
266.3976671588593
 20
463.2404059903418
 30
0.0
 11
302.8976671588594
 21
463.2404059903418
 31
0.0
  0
LINE
  5
35C
330
77
100
AcDbEntity
  8
MaVisibleEdge
100
AcDbLine
 10
266.8476671588593
 20
462.7904059903418
 30
0.0
 11
266.3976671588593
 21
463.2404059903418
 31
0.0
  0
LINE
  5
35D
330
77
100
AcDbEntity
  8
MaVisibleEdge
100
AcDbLine
 10
302.4476671588594
 20
462.7904059903418
 30
0.0
 11
302.8976671588594
 21
463.2404059903418
 31
0.0
  0
SPLINE
  5
35E
330
77
100
AcDbEntity
  8
MaVisibleEdge thinFlag
100
AcDbSpline
210
0.0
220
0.0
230
1.0
 70
     8
 71
     3
 72
    14
 73
    10
 74
     0
 42
0.0000000001
 43
0.0000000001
 40
-1.38327713581222
 40
-1.38327713581222
 40
-1.38327713581222
 40
-1.38327713581222
 40
-0.8922137525988823
 40
-0.8922137525988823
 40
-0.4495650691389718
 40
-0.4495650691389718
 40
-0.1729096419765277
 40
-0.1729096419765277
 40
-0.0000000000000001
 40
-0.0000000000000001
 40
-0.0000000000000001
 40
-0.0000000000000001
 10
272.4042505025345
 20
502.2904059903417
 30
0.0
 10
272.4042505025345
 20
503.9272839343863
 30
0.0
 10
271.9133298077574
 20
505.49249523548
 30
0.0
 10
270.7340928487175
 20
507.8174709998411
 30
0.0
 10
270.0835465355197
 20
508.6844463270475
 30
0.0
 10
269.0835324980114
 20
509.6879689695758
 30
0.0
 10
268.7135994694531
 20
509.9714221883216
 30
0.0
 10
268.1615324150854
 20
510.2368787968182
 30
0.0
 10
267.9624751025897
 20
510.2904059903417
 30
0.0
 10
267.7818742814032
 20
510.2904059903417
 30
0.0
  0
LINE
  5
35F
330
77
100
AcDbEntity
  8
MaVisibleEdge thinFlag
100
AcDbLine
 10
272.4042505025345
 20
485.2904059903417
 30
0.0
 11
272.4042505025345
 21
502.2904059903417
 31
0.0
  0
SPLINE
  5
360
330
77
100
AcDbEntity
  8
MaVisibleEdge thinFlag
100
AcDbSpline
210
0.0
220
0.0
230
1.0
 70
     8
 71
     3
 72
    16
 73
    12
 74
     0
 42
0.0000000001
 43
0.0000000001
 40
-1.384037301341103
 40
-1.384037301341103
 40
-1.384037301341103
 40
-1.384037301341103
 40
-0.9155213593861752
 40
-0.9155213593861752
 40
-0.5103813974106163
 40
-0.5103813974106163
 40
-0.2571689211758919
 40
-0.2571689211758919
 40
-0.0989111235291892
 40
-0.0989111235291892
 40
0.0
 40
0.0
 40
0.0
 40
0.0
 10
267.7818742814032
 20
477.2904059903417
 30
0.0
 10
268.2712302414804
 20
477.2904059903417
 30
0.0
 10
268.8929313945815
 20
477.6824510601213
 30
0.0
 10
270.109435134554
 20
478.9411237030488
 30
0.0
 10
270.700593661373
 20
479.7352160737712
 30
0.0
 10
271.5411019820164
 20
481.3349728332499
 30
0.0
 10
271.8360041320265
 20
482.0305431165098
 30
0.0
 10
272.1868464910476
 20
483.2733632943662
 30
0.0
 10
272.290278248046
 20
483.778499257529
 30
0.0
 10
272.3854955539412
 20
484.6287208121137
 30
0.0
 10
272.4042505025345
 20
484.9607022452445
 30
0.0
 10
272.4042505025345
 20
485.2904059903417
 30
0.0
  0
LINE
  5
361
330
77
100
AcDbEntity
  8
MaVisibleEdge thinFlag
100
AcDbLine
 10
267.7818742814032
 20
477.2904059903417
 30
0.0
 11
266.3976671588593
 21
477.2904059903417
 31
0.0
  0
LINE
  5
362
330
77
100
AcDbEntity
  8
MaVisibleEdge thinFlag
100
AcDbLine
 10
266.3976671588593
 20
510.2904059903417
 30
0.0
 11
267.7818742814032
 21
510.2904059903417
 31
0.0
  0
LINE
  5
363
330
77
100
AcDbEntity
  8
MaVisibleEdge
100
AcDbLine
 10
264.0852621438786
 20
506.2904059903417
 30
0.0
 11
234.6476671588568
 21
506.2904059903417
 31
0.0
  0
LINE
  5
364
330
77
100
AcDbEntity
  8
MaVisibleEdge thinFlag
100
AcDbLine
 10
269.7207619203275
 20
502.2904059903417
 30
0.0
 11
269.7207619203275
 21
485.2904059903417
 31
0.0
  0
LINE
  5
365
330
77
100
AcDbEntity
  8
MaVisibleEdge
100
AcDbLine
 10
234.6476671588568
 20
481.2904059903417
 30
0.0
 11
264.0852621438786
 21
481.2904059903417
 31
0.0
  0
SPLINE
  5
366
330
77
100
AcDbEntity
  8
MaVisibleEdge thinFlag
100
AcDbSpline
210
0.0
220
0.0
230
1.0
 70
     8
 71
     3
 72
    16
 73
    12
 74
     0
 42
0.0000000001
 43
0.0000000001
 40
0.0
 40
0.0
 40
0.0
 40
0.0
 40
0.0989111235291892
 40
0.0989111235291892
 40
0.2571689211758919
 40
0.2571689211758919
 40
0.5103813974106163
 40
0.5103813974106163
 40
0.9155213593861752
 40
0.9155213593861752
 40
1.384037301341103
 40
1.384037301341103
 40
1.384037301341103
 40
1.384037301341103
 10
269.7207619203275
 20
485.2904059903417
 30
0.0
 10
269.7207619203275
 20
485.1255541177931
 30
0.0
 10
269.6978962980698
 20
484.9595634012277
 30
0.0
 10
269.5818094456771
 20
484.5344526239353
 30
0.0
 10
269.455707714542
 20
484.281884642354
 30
0.0
 10
269.0279684001189
 20
483.6604745534258
 30
0.0
 10
268.6684301624354
 20
483.3126894117959
 30
0.0
 10
267.6437008400069
 20
482.5128110320565
 30
0.0
 10
266.9229733210084
 20
482.1157648466953
 30
0.0
 10
265.4398386243292
 20
481.4864285252315
 30
0.0
 10
264.6818742047948
 20
481.2904059903417
 30
0.0
 10
264.0852621438786
 20
481.2904059903417
 30
0.0
  0
SPLINE
  5
367
330
77
100
AcDbEntity
  8
MaVisibleEdge thinFlag
100
AcDbSpline
210
0.0
220
0.0
230
1.0
 70
     8
 71
     3
 72
    14
 73
    10
 74
     0
 42
0.0000000001
 43
0.0000000001
 40
0.0000000000000001
 40
0.0000000000000001
 40
0.0000000000000001
 40
0.0000000000000001
 40
0.1729096419765277
 40
0.1729096419765277
 40
0.4495650691389718
 40
0.4495650691389718
 40
0.8922137525988823
 40
0.8922137525988823
 40
1.38327713581222
 40
1.38327713581222
 40
1.38327713581222
 40
1.38327713581222
 10
264.0852621438786
 20
506.2904059903417
 30
0.0
 10
264.3054467066952
 20
506.2904059903417
 30
0.0
 10
264.5481330191899
 20
506.2636423935799
 30
0.0
 10
265.2212010717754
 20
506.1309140893317
 30
0.0
 10
265.6722153120726
 20
505.9891874799587
 30
0.0
 10
266.8914105084871
 20
505.4874261586946
 30
0.0
 10
267.6845423149887
 20
505.0539384950915
 30
0.0
 10
269.1222421691608
 20
503.8914506129109
 30
0.0
 10
269.7207619203275
 20
503.108844962364
 30
0.0
 10
269.7207619203275
 20
502.2904059903417
 30
0.0
  0
ARC
  5
368
330
77
100
AcDbEntity
  8
MaVisibleEdge
100
AcDbCircle
 10
262.3976671588593
 20
477.2904059903417
 30
0.0
 40
4.0
100
AcDbArc
 50
0.0
 51
90.0
  0
ARC
  5
369
330
77
100
AcDbEntity
  8
MaVisibleEdge
100
AcDbCircle
 10
262.3976671588593
 20
510.2904059903417
 30
0.0
 40
4.0
100
AcDbArc
 50
273.7031966342717
 51
0.0
  0
LINE
  5
36A
330
77
100
AcDbEntity
  8
MaVisibleEdge
100
AcDbLine
 10
266.3976671588593
 20
536.7904059903418
 30
0.0
 11
302.8976671588594
 21
536.7904059903418
 31
0.0
  0
LINE
  5
36B
330
77
100
AcDbEntity
  8
MaVisibleEdge
100
AcDbLine
 10
301.8976671588593
 20
537.7904059903418
 30
0.0
 11
267.3976671588594
 21
537.7904059903418
 31
0.0
  0
LINE
  5
36C
330
77
100
AcDbEntity
  8
MaVisibleEdge
100
AcDbLine
 10
268.1476671588594
 20
537.7904059903418
 30
0.0
 11
268.1476671588594
 21
540.4904059903418
 31
0.0
  0
LINE
  5
36D
330
77
100
AcDbEntity
  8
MaVisibleEdge
100
AcDbLine
 10
301.1476671588594
 20
537.7904059903418
 30
0.0
 11
301.1476671588594
 21
540.4904059903418
 31
0.0
  0
LINE
  5
36E
330
77
100
AcDbEntity
  8
MaVisibleEdge
100
AcDbLine
 10
301.8976671588593
 20
537.7904059903418
 30
0.0
 11
302.8976671588594
 21
536.7904059903418
 31
0.0
  0
LINE
  5
36F
330
77
100
AcDbEntity
  8
MaVisibleEdge
100
AcDbLine
 10
267.3976671588594
 20
537.7904059903418
 30
0.0
 11
266.3976671588593
 21
536.7904059903418
 31
0.0
  0
SPLINE
  5
370
330
77
100
AcDbEntity
  8
MaVisibleEdge
100
AcDbSpline
210
0.0
220
0.0
230
1.0
 70
     8
 71
     3
 72
    12
 73
     8
 74
     0
 42
0.0000000001
 43
0.0000000001
 40
-0.6114256395928989
 40
-0.6114256395928989
 40
-0.6114256395928989
 40
-0.6114256395928989
 40
-0.5784150913119909
 40
-0.5784150913119909
 40
-0.5075050538792042
 40
-0.5075050538792042
 40
-0.4300477042268328
 40
-0.4300477042268328
 40
-0.4300477042268328
 40
-0.4300477042268328
 10
262.6560194995635
 20
506.2987526210483
 30
0.0
 10
262.6560195999604
 20
506.2987513311379
 30
0.0
 10
262.6537812941779
 20
506.2985615811604
 30
0.0
 10
262.6397031049557
 20
506.2973889414059
 30
0.0
 10
262.6198870089851
 20
506.2957388928359
 30
0.0
 10
262.5585656493835
 20
506.2922288287128
 30
0.0
 10
262.5154905638324
 20
506.2904059903417
 30
0.0
 10
262.4632921588589
 20
506.2904059903417
 30
0.0
  0
LINE
  5
371
330
77
100
AcDbEntity
  8
MaVisibleEdge
100
AcDbLine
 10
222.6476671588594
 20
483.7404059903418
 30
0.0
 11
222.6476671588594
 21
503.8404059903418
 31
0.0
  0
LINE
  5
372
330
77
100
AcDbEntity
  8
MaVisibleEdge
100
AcDbLine
 10
223.8476671588594
 20
505.0404059903418
 30
0.0
 11
223.8476671588594
 21
482.5404059903418
 31
0.0
  0
LINE
  5
373
330
77
100
AcDbEntity
  8
MaVisibleEdge
100
AcDbLine
 10
222.6476671588594
 20
503.8404059903418
 30
0.0
 11
223.8476671588594
 21
505.0404059903418
 31
0.0
  0
LINE
  5
374
330
77
100
AcDbEntity
  8
MaVisibleEdge
100
AcDbLine
 10
222.6476671588594
 20
483.7404059903418
 30
0.0
 11
223.8476671588594
 21
482.5404059903418
 31
0.0
  0
LINE
  5
375
330
77
100
AcDbEntity
  8
MaVisibleEdge
100
AcDbLine
 10
234.6476671588557
 20
485.2904059903417
 30
0.0
 11
234.6476671588568
 21
481.2904059903417
 31
0.0
  0
LINE
  5
376
330
77
100
AcDbEntity
  8
MaVisibleEdge
100
AcDbLine
 10
234.6476671588557
 20
485.2904059903417
 30
0.0
 11
234.6476671588557
 21
502.2904059903417
 31
0.0
  0
LINE
  5
377
330
77
100
AcDbEntity
  8
MaVisibleEdge
100
AcDbLine
 10
234.6476671588568
 20
506.2904059903417
 30
0.0
 11
234.6476671588557
 21
502.2904059903417
 31
0.0
  0
LINE
  5
378
330
77
100
AcDbEntity
  8
MaVisibleEdge
100
AcDbLine
 10
302.8976671588594
 20
536.7904059903418
 30
0.0
 11
302.8976671588594
 21
463.2404059903418
 31
0.0
  0
LINE
  5
379
330
77
100
AcDbEntity
  8
MaVisibleEdge
100
AcDbLine
 10
266.3976671588593
 20
536.7904059903418
 30
0.0
 11
266.3976671588593
 21
510.2904059903417
 31
0.0
  0
LINE
  5
37A
330
77
100
AcDbEntity
  8
MaVisibleEdge
100
AcDbLine
 10
266.3976671588593
 20
477.2904059903417
 30
0.0
 11
266.3976671588593
 21
463.2404059903418
 31
0.0
  0
LINE
  5
37B
330
77
100
AcDbEntity
  8
MaVisibleEdge
100
AcDbLine
 10
223.8476671588594
 20
505.0404059903418
 30
0.0
 11
229.6476671588593
 21
505.0404059903418
 31
0.0
  0
LINE
  5
37C
330
77
100
AcDbEntity
  8
MaVisibleEdge
100
AcDbLine
 10
223.8476671588594
 20
482.5404059903418
 30
0.0
 11
229.6476671588593
 21
482.5404059903418
 31
0.0
  0
LINE
  5
37D
330
77
100
AcDbEntity
  8
MaVisibleEdge thinFlag
100
AcDbLine
 10
249.6976671588594
 20
478.7904059903418
 30
0.0
 11
259.5976671588594
 21
478.7904059903418
 31
0.0
  0
LINE
  5
37E
330
77
100
AcDbEntity
  8
MaVisibleEdge
100
AcDbLine
 10
258.5976671588593
 20
477.7904059903418
 30
0.0
 11
250.6976671588593
 21
477.7904059903418
 31
0.0
  0
ARC
  5
37F
330
77
100
AcDbEntity
  8
MaVisibleEdge
100
AcDbCircle
 10
250.6976671588593
 20
478.7904059903418
 30
0.0
 40
1.0
100
AcDbArc
 50
180.0
 51
270.0
  0
ARC
  5
380
330
77
100
AcDbEntity
  8
MaVisibleEdge
100
AcDbCircle
 10
258.5976671588593
 20
478.7904059903418
 30
0.0
 40
1.0
100
AcDbArc
 50
270.0
 51
0.0
  0
LINE
  5
381
330
77
100
AcDbEntity
  8
MaVisibleEdge
100
AcDbLine
 10
249.6976671588594
 20
480.1904059903418
 30
0.0
 11
259.5976671588594
 21
480.1904059903418
 31
0.0
  0
LINE
  5
382
330
77
100
AcDbEntity
  8
MaVisibleEdge
100
AcDbLine
 10
251.2340307458952
 20
481.1904059903418
 30
0.0
 11
258.0613035718215
 21
481.1904059903418
 31
0.0
  0
LINE
  5
383
330
77
100
AcDbEntity
  8
MaVisibleEdge
100
AcDbLine
 10
259.5976671588594
 20
480.1904059903418
 30
0.0
 11
259.5976671588594
 21
478.7904059903418
 31
0.0
  0
LINE
  5
384
330
77
100
AcDbEntity
  8
MaVisibleEdge
100
AcDbLine
 10
249.6976671588594
 20
480.1904059903418
 30
0.0
 11
249.6976671588594
 21
478.7904059903418
 31
0.0
  0
LINE
  5
385
330
77
100
AcDbEntity
  8
MaVisibleEdge
100
AcDbLine
 10
259.5976671588594
 20
481.2904059903417
 30
0.0
 11
259.5976671588594
 21
481.1904059903418
 31
0.0
  0
LINE
  5
386
330
77
100
AcDbEntity
  8
MaVisibleEdge
100
AcDbLine
 10
249.6976671588594
 20
481.2904059903417
 30
0.0
 11
249.6976671588594
 21
481.1904059903418
 31
0.0
  0
LINE
  5
387
330
77
100
AcDbEntity
  8
MaVisibleEdge thinFlag
100
AcDbLine
 10
251.7090449545894
 20
480.3904059903418
 30
0.0
 11
257.5862893631282
 21
480.3904059903418
 31
0.0
  0
LINE
  5
388
330
77
100
AcDbEntity
  8
MaVisibleEdge thinFlag
100
AcDbLine
 10
257.5862893631282
 20
480.9904059903418
 30
0.0
 11
251.7090449545894
 21
480.9904059903418
 31
0.0
  0
ARC
  5
389
330
77
100
AcDbEntity
  8
MaVisibleEdge
100
AcDbCircle
 10
250.9476671588593
 20
480.3904059903418
 30
0.0
 40
0.2000000000000002
100
AcDbArc
 50
270.0
 51
330.0000000000038
  0
ARC
  5
38A
330
77
100
AcDbEntity
  8
MaVisibleEdge
100
AcDbCircle
 10
258.3476671588594
 20
480.3904059903418
 30
0.0
 40
0.2000000000000002
100
AcDbArc
 50
209.9999999999962
 51
270.0
  0
LINE
  5
38B
330
77
100
AcDbEntity
  8
MaVisibleEdge
100
AcDbLine
 10
258.5680771826806
 20
481.1904059903418
 30
0.0
 11
258.0613035718214
 21
481.1904059903418
 31
0.0
  0
LINE
  5
38C
330
77
100
AcDbEntity
  8
MaVisibleEdge thinFlag
100
AcDbLine
 10
257.6107611049805
 20
480.2904059903418
 30
0.0
 11
257.6107611049805
 21
481.190121130501
 31
0.0
  0
LINE
  5
38D
330
77
100
AcDbEntity
  8
MaVisibleEdge
100
AcDbLine
 10
257.6107611049805
 20
480.2904059903418
 30
0.0
 11
258.5680771826806
 21
480.2904059903418
 31
0.0
  0
LINE
  5
38E
330
77
100
AcDbEntity
  8
MaVisibleEdge thinFlag
100
AcDbLine
 10
258.5680771826806
 20
480.2904059903418
 30
0.0
 11
258.5680771826806
 21
481.1904059903418
 31
0.0
  0
LINE
  5
38F
330
77
100
AcDbEntity
  8
MaVisibleEdge
100
AcDbLine
 10
257.6107611049805
 20
480.2904059903418
 30
0.0
 11
257.5862893631281
 21
480.2904059903418
 31
0.0
  0
LINE
  5
390
330
77
100
AcDbEntity
  8
MaVisibleEdge thinFlag
100
AcDbLine
 10
251.6845732127369
 20
480.2904059903418
 30
0.0
 11
251.6845732127369
 21
481.190121130501
 31
0.0
  0
LINE
  5
391
330
77
100
AcDbEntity
  8
MaVisibleEdge
100
AcDbLine
 10
251.7090449545894
 20
480.2904059903418
 30
0.0
 11
251.6845732127369
 21
480.2904059903418
 31
0.0
  0
LINE
  5
392
330
77
100
AcDbEntity
  8
MaVisibleEdge
100
AcDbLine
 10
251.2340307458952
 20
481.1904059903418
 30
0.0
 11
250.7272571350351
 21
481.1904059903418
 31
0.0
  0
LINE
  5
393
330
77
100
AcDbEntity
  8
MaVisibleEdge thinFlag
100
AcDbLine
 10
250.7272571350351
 20
480.2904059903418
 30
0.0
 11
250.7272571350351
 21
481.1904059903418
 31
0.0
  0
LINE
  5
394
330
77
100
AcDbEntity
  8
MaVisibleEdge
100
AcDbLine
 10
250.7272571350351
 20
480.2904059903418
 30
0.0
 11
251.6845732127369
 21
480.2904059903418
 31
0.0
  0
LINE
  5
395
330
77
100
AcDbEntity
  8
MaVisibleEdge
100
AcDbLine
 10
249.9212072015514
 20
481.1904059903418
 30
0.0
 11
250.7272571350352
 21
481.1904059903418
 31
0.0
  0
LINE
  5
396
330
77
100
AcDbEntity
  8
MaVisibleEdge thinFlag
100
AcDbLine
 10
249.9212072015514
 20
480.2904059903418
 30
0.0
 11
249.9212072015514
 21
481.1904059903418
 31
0.0
  0
LINE
  5
397
330
77
100
AcDbEntity
  8
MaVisibleEdge
100
AcDbLine
 10
250.7272571350352
 20
480.2904059903418
 30
0.0
 11
249.9212072015514
 21
480.2904059903418
 31
0.0
  0
LINE
  5
398
330
77
100
AcDbEntity
  8
MaVisibleEdge
100
AcDbLine
 10
247.4976671588593
 20
481.1904059903418
 30
0.0
 11
249.9212072015513
 21
481.1904059903418
 31
0.0
  0
LINE
  5
399
330
77
100
AcDbEntity
  8
MaVisibleEdge
100
AcDbLine
 10
259.3741271161642
 20
481.1904059903418
 30
0.0
 11
261.7976671588594
 21
481.1904059903418
 31
0.0
  0
LINE
  5
39A
330
77
100
AcDbEntity
  8
MaVisibleEdge thinFlag
100
AcDbLine
 10
259.3741271161642
 20
480.2904059903418
 30
0.0
 11
259.3741271161642
 21
481.1904059903418
 31
0.0
  0
LINE
  5
39B
330
77
100
AcDbEntity
  8
MaVisibleEdge
100
AcDbLine
 10
261.7976671588594
 20
480.2904059903418
 30
0.0
 11
259.3741271161642
 21
480.2904059903418
 31
0.0
  0
LINE
  5
39C
330
77
100
AcDbEntity
  8
MaVisibleEdge
100
AcDbLine
 10
249.9212072015514
 20
480.2904059903418
 30
0.0
 11
247.4976671588594
 21
480.2904059903418
 31
0.0
  0
LINE
  5
39D
330
77
100
AcDbEntity
  8
MaVisibleEdge
100
AcDbLine
 10
258.5680771826806
 20
481.1904059903418
 30
0.0
 11
259.3741271161642
 21
481.1904059903418
 31
0.0
  0
LINE
  5
39E
330
77
100
AcDbEntity
  8
MaVisibleEdge
100
AcDbLine
 10
259.3741271161641
 20
480.2904059903418
 30
0.0
 11
258.5680771826806
 21
480.2904059903418
 31
0.0
  0
LINE
  5
39F
330
77
100
AcDbEntity
  8
MaVisibleEdge
100
AcDbLine
 10
257.5862893631281
 20
480.2904059903418
 30
0.0
 11
257.5862893631281
 21
481.1498774591661
 31
0.0
  0
LINE
  5
3A0
330
77
100
AcDbEntity
  8
MaVisibleEdge
100
AcDbLine
 10
251.7090449545894
 20
480.2904059903418
 30
0.0
 11
251.7090449545894
 21
481.1498774591661
 31
0.0
  0
LINE
  5
3A1
330
77
100
AcDbEntity
  8
MaVisibleEdge
100
AcDbLine
 10
247.4976671588594
 20
480.2904059903418
 30
0.0
 11
247.4976671588594
 21
481.1904059903418
 31
0.0
  0
LINE
  5
3A2
330
77
100
AcDbEntity
  8
MaVisibleEdge
100
AcDbLine
 10
261.7976671588594
 20
480.2904059903418
 30
0.0
 11
261.7976671588594
 21
481.1904059903418
 31
0.0
  0
ARC
  5
3A3
330
77
100
AcDbEntity
  8
MaVisibleEdge
100
AcDbCircle
 10
284.6476671588593
 20
503.4904059903419
 30
0.0
 40
59.99990000000003
100
AcDbArc
 50
87.20571854615013
 51
92.79428145385148
  0
LINE
  5
3A4
330
77
100
AcDbEntity
  8
MaVisibleEdge thinFlag
100
AcDbLine
 10
267.7983520903663
 20
561.0759995161766
 30
0.0
 11
301.4969822273525
 21
561.0759995161766
 31
0.0
  0
LINE
  5
3A5
330
77
100
AcDbEntity
  8
MaVisibleEdge thinFlag
100
AcDbLine
 10
302.6476671588593
 20
559.5403836888209
 30
0.0
 11
266.6476671588595
 21
559.5403836888209
 31
0.0
  0
ARC
  5
3A6
330
77
100
AcDbEntity
  8
MaVisibleEdge
100
AcDbCircle
 10
301.0476671588594
 20
559.5403836888209
 30
0.0
 40
1.600000000000001
100
AcDbArc
 50
0.0
 51
73.69073455358826
  0
ARC
  5
3A7
330
77
100
AcDbEntity
  8
MaVisibleEdge
100
AcDbCircle
 10
268.2476671588595
 20
559.5403836888209
 30
0.0
 40
1.600000000000001
100
AcDbArc
 50
106.3092654464124
 51
180.0
  0
LINE
  5
3A8
330
77
100
AcDbEntity
  8
MaVisibleEdge
100
AcDbLine
 10
302.6476671588593
 20
558.4904059903418
 30
0.0
 11
266.6476671588595
 21
558.4904059903418
 31
0.0
  0
ARC
  5
3A9
330
77
100
AcDbEntity
  8
MaVisibleEdge
100
AcDbCircle
 10
284.6476671588593
 20
503.4904059903419
 30
0.0
 40
60.00000000000003
100
AcDbArc
 50
73.69073455358824
 51
87.20572320698169
  0
ARC
  5
3AA
330
77
100
AcDbEntity
  8
MaVisibleEdge
100
AcDbCircle
 10
284.6476671588593
 20
503.4904059903419
 30
0.0
 40
60.0
100
AcDbArc
 50
92.79427679301987
 51
106.3092654464113
  0
LINE
  5
3AB
330
77
100
AcDbEntity
  8
MaVisibleEdge
100
AcDbLine
 10
266.6476671588595
 20
558.4904059903418
 30
0.0
 11
266.6476671588595
 21
559.5403836888209
 31
0.0
  0
LINE
  5
3AC
330
77
100
AcDbEntity
  8
MaVisibleEdge
100
AcDbLine
 10
302.6476671588594
 20
558.4904059903418
 30
0.0
 11
302.6476671588594
 21
559.5403836888209
 31
0.0
  0
LINE
  5
3AD
330
77
100
AcDbEntity
  8
MaVisibleEdge
100
AcDbLine
 10
270.8387571155653
 20
557.7904059903419
 30
0.0
 11
270.8387571155653
 21
558.4904059903418
 31
0.0
  0
LINE
  5
3AE
330
77
100
AcDbEntity
  8
MaVisibleEdge
100
AcDbLine
 10
272.6146909225942
 20
558.0573932884496
 30
0.0
 11
272.6146909225942
 21
557.7904059903419
 31
0.0
  0
SPLINE
  5
3AF
330
77
100
AcDbEntity
  8
MaVisibleEdge
100
AcDbSpline
210
0.0
220
0.0
230
1.0
 70
    12
 71
     2
 72
     6
 73
     3
 74
     0
 42
0.0000000001
 43
0.0000000001
 40
0.0
 40
0.0
 40
0.0
 40
0.0498156134167788
 40
0.0498156134167788
 40
0.0498156134167788
 10
272.4369799943112
 20
558.4904059903418
 30
0.0
 41
1.0
 10
272.5265463017489
 20
558.2721492340759
 30
0.0
 41
1.000052545637121
 10
272.6146909225942
 20
558.0573932884496
 30
0.0
 41
1.000040409137435
  0
LINE
  5
3B0
330
77
100
AcDbEntity
  8
MaVisibleEdge
100
AcDbLine
 10
273.1014988153615
 20
558.4904059903418
 30
0.0
 11
273.1014988153615
 21
557.7904059903419
 31
0.0
  0
LINE
  5
3B1
330
77
100
AcDbEntity
  8
MaVisibleEdge
100
AcDbLine
 10
270.8387571155652
 20
557.7904059903419
 30
0.0
 11
273.1014988153615
 21
557.7904059903419
 31
0.0
  0
LINE
  5
3B2
330
77
100
AcDbEntity
  8
MaVisibleEdge
100
AcDbLine
 10
266.6476671588596
 20
558.4904059903418
 30
0.0
 11
270.8387571155653
 21
558.4904059903418
 31
0.0
  0
LINE
  5
3B3
330
77
100
AcDbEntity
  8
MaVisibleEdge
100
AcDbLine
 10
273.1014988153615
 20
558.4904059903418
 30
0.0
 11
302.6476671588593
 21
558.4904059903418
 31
0.0
  0
LINE
  5
3B4
330
77
100
AcDbEntity
  8
MaVisibleEdge
100
AcDbLine
 10
266.6476671588596
 20
549.8904059903418
 30
0.0
 11
302.6476671588593
 21
549.8904059903418
 31
0.0
  0
LINE
  5
3B5
330
77
100
AcDbEntity
  8
MaVisibleEdge
100
AcDbLine
 10
266.6476671588595
 20
551.4904059903418
 30
0.0
 11
302.6476671588593
 21
551.4904059903418
 31
0.0
  0
LINE
  5
3B6
330
77
100
AcDbEntity
  8
MaVisibleEdge
100
AcDbLine
 10
267.1476671588595
 20
540.4904059903418
 30
0.0
 11
302.1476671588593
 21
540.4904059903418
 31
0.0
  0
LINE
  5
3B7
330
77
100
AcDbEntity
  8
MaVisibleEdge
100
AcDbLine
 10
302.6476671588593
 20
549.8904059903418
 30
0.0
 11
302.6476671588593
 21
541.2904059903418
 31
0.0
  0
LINE
  5
3B8
330
77
100
AcDbEntity
  8
MaVisibleEdge
100
AcDbLine
 10
266.6476671588595
 20
549.8904059903419
 30
0.0
 11
266.6476671588595
 21
541.2904059903419
 31
0.0
  0
LINE
  5
3B9
330
77
100
AcDbEntity
  8
MaVisibleEdge
100
AcDbLine
 10
302.6476671588593
 20
558.4904059903418
 30
0.0
 11
302.6476671588593
 21
551.4904059903417
 31
0.0
  0
LINE
  5
3BA
330
77
100
AcDbEntity
  8
MaVisibleEdge
100
AcDbLine
 10
266.6476671588596
 20
558.4904059903418
 30
0.0
 11
266.6476671588595
 21
551.4904059903418
 31
0.0
  0
LINE
  5
3BB
330
77
100
AcDbEntity
  8
MaVisibleEdge
100
AcDbLine
 10
302.1476671588593
 20
540.7904059903419
 30
0.0
 11
302.1476671588593
 21
540.4904059903418
 31
0.0
  0
LINE
  5
3BC
330
77
100
AcDbEntity
  8
MaVisibleEdge
100
AcDbLine
 10
267.1476671588595
 20
540.7904059903419
 30
0.0
 11
267.1476671588595
 21
540.4904059903418
 31
0.0
  0
LINE
  5
3BD
330
77
100
AcDbEntity
  8
MaVisibleEdge thinFlag
100
AcDbLine
 10
266.6476671588595
 20
541.2904059903418
 30
0.0
 11
302.6476671588592
 21
541.2904059903418
 31
0.0
  0
LINE
  5
3BE
330
77
100
AcDbEntity
  8
MaVisibleEdge
100
AcDbLine
 10
267.1476671588595
 20
540.7904059903419
 30
0.0
 11
302.1476671588593
 21
540.7904059903419
 31
0.0
  0
ARC
  5
3BF
330
77
100
AcDbEntity
  8
MaVisibleEdge
100
AcDbCircle
 10
267.1476671588595
 20
541.2904059903419
 30
0.0
 40
0.5000000000000002
100
AcDbArc
 50
180.0
 51
270.0
  0
ARC
  5
3C0
330
77
100
AcDbEntity
  8
MaVisibleEdge
100
AcDbCircle
 10
302.1476671588593
 20
541.2904059903418
 30
0.0
 40
0.5000000000000004
100
AcDbArc
 50
270.0
 51
0.0
  0
LINE
  5
3C1
330
77
100
AcDbEntity
  8
MaVisibleEdge thinFlag
100
AcDbLine
 10
284.6476671588543
 20
549.8904059903419
 30
0.0
 11
284.6476671588543
 21
551.4904059903418
 31
0.0
  0
SPLINE
  5
3C2
330
77
100
AcDbEntity
  8
MaVisibleEdge
100
AcDbSpline
210
0.0
220
0.0
230
1.0
 70
     8
 71
     3
 72
    26
 73
    22
 74
     0
 42
0.0000000001
 43
0.0000000001
 40
-3.141592653589793
 40
-3.141592653589793
 40
-3.141592653589793
 40
-3.141592653589793
 40
-2.841592653589793
 40
-2.841592653589793
 40
-2.537982922964593
 40
-2.537982922964593
 40
-2.224665726992733
 40
-2.224665726992733
 40
-1.898625022083633
 40
-1.898625022083633
 40
-1.561576977858399
 40
-1.561576977858399
 40
-1.220247157609849
 40
-1.220247157609849
 40
-0.8837883850299972
 40
-0.8837883850299972
 40
-0.5590811178794823
 40
-0.5590811178794823
 40
-0.2474527261078903
 40
-0.2474527261078903
 40
0.000000000000002
 40
0.000000000000002
 40
0.000000000000002
 40
0.000000000000002
 10
301.8976671588593
 20
549.8904059903419
 30
0.0
 10
301.9726671588594
 20
549.8904059903419
 30
0.0
 10
302.0476570771709
 20
549.9024951825084
 30
0.0
 10
302.1918196773853
 20
549.9500628817984
 30
0.0
 10
302.2608908112307
 20
549.9858165339722
 30
0.0
 10
302.38786856744
 20
550.0791975593528
 30
0.0
 10
302.44532450675
 20
550.1374785546936
 30
0.0
 10
302.5425488230863
 20
550.2728069467023
 30
0.0
 10
302.5814796322405
 20
550.3505016313773
 30
0.0
 10
302.6348563071641
 20
550.5179083251852
 30
0.0
 10
302.6484121153144
 20
550.6079057062387
 30
0.0
 10
302.6468485869028
 20
550.7887987821963
 30
0.0
 10
302.6313596837542
 20
550.8796511357765
 30
0.0
 10
302.5731692234495
 20
551.0494027036561
 30
0.0
 10
302.5308752822478
 20
551.1284188011334
 30
0.0
 10
302.4260429894965
 20
551.2647330989893
 30
0.0
 10
302.3642898095924
 20
551.3226730303252
 30
0.0
 10
302.2294275582091
 20
551.4126776094662
 30
0.0
 10
302.1569024718055
 20
551.4456832507451
 30
0.0
 10
302.0213896672771
 20
551.4822002040663
 30
0.0
 10
301.9595303403863
 20
551.4904059903418
 30
0.0
 10
301.8976671588593
 20
551.4904059903418
 30
0.0
  0
SPLINE
  5
3C3
330
77
100
AcDbEntity
  8
MaVisibleEdge
100
AcDbSpline
210
0.0
220
0.0
230
1.0
 70
     8
 71
     3
 72
    26
 73
    22
 74
     0
 42
0.0000000001
 43
0.0000000001
 40
-3.141592653589793
 40
-3.141592653589793
 40
-3.141592653589793
 40
-3.141592653589793
 40
-2.841592653589793
 40
-2.841592653589793
 40
-2.537982922964593
 40
-2.537982922964593
 40
-2.224665726992733
 40
-2.224665726992733
 40
-1.898625022083633
 40
-1.898625022083633
 40
-1.561576977858398
 40
-1.561576977858398
 40
-1.220247157609849
 40
-1.220247157609849
 40
-0.8837883850299972
 40
-0.8837883850299972
 40
-0.5590811178794823
 40
-0.5590811178794823
 40
-0.2474527261078903
 40
-0.2474527261078903
 40
0.000000000000002
 40
0.000000000000002
 40
0.000000000000002
 40
0.000000000000002
 10
267.3976671588595
 20
549.8904059903419
 30
0.0
 10
267.3226671588595
 20
549.8904059903419
 30
0.0
 10
267.247677240548
 20
549.9024951825084
 30
0.0
 10
267.1035146403335
 20
549.9500628817984
 30
0.0
 10
267.0344435064881
 20
549.9858165339722
 30
0.0
 10
266.9074657502789
 20
550.0791975593529
 30
0.0
 10
266.8500098109689
 20
550.1374785546936
 30
0.0
 10
266.7527854946326
 20
550.2728069467023
 30
0.0
 10
266.7138546854783
 20
550.3505016313773
 30
0.0
 10
266.6604780105548
 20
550.5179083251853
 30
0.0
 10
266.6469222024045
 20
550.6079057062387
 30
0.0
 10
266.6484857308161
 20
550.7887987821963
 30
0.0
 10
266.6639746339646
 20
550.8796511357766
 30
0.0
 10
266.7221650942693
 20
551.0494027036561
 30
0.0
 10
266.7644590354711
 20
551.1284188011334
 30
0.0
 10
266.8692913282224
 20
551.2647330989893
 30
0.0
 10
266.9310445081265
 20
551.3226730303253
 30
0.0
 10
267.0659067595098
 20
551.4126776094662
 30
0.0
 10
267.1384318459134
 20
551.4456832507451
 30
0.0
 10
267.2739446504418
 20
551.4822002040664
 30
0.0
 10
267.3358039773325
 20
551.4904059903418
 30
0.0
 10
267.3976671588595
 20
551.4904059903418
 30
0.0
  0
LINE
  5
3C4
330
77
100
AcDbEntity
  8
MaVisibleEdge thinFlag
100
AcDbLine
 10
269.5914913512624
 20
445.2406894200533
 30
0.0
 11
299.7038429664564
 21
445.2406894200533
 31
0.0
  0
LINE
  5
3C5
330
77
100
AcDbEntity
  8
MaVisibleEdge
100
AcDbLine
 10
298.8684917275453
 20
444.7904059903418
 30
0.0
 11
270.4268425901734
 21
444.7904059903418
 31
0.0
  0
ARC
  5
3C6
330
77
100
AcDbEntity
  8
MaVisibleEdge
100
AcDbCircle
 10
270.4268425901734
 20
445.7904059903418
 30
0.0
 40
1.000000000000001
100
AcDbArc
 50
213.3475706805802
 51
270.0
  0
ARC
  5
3C7
330
77
100
AcDbEntity
  8
MaVisibleEdge
100
AcDbCircle
 10
298.8684917275453
 20
445.7904059903418
 30
0.0
 40
1.0
100
AcDbArc
 50
270.0
 51
326.6524293194199
  0
LINE
  5
3C8
330
77
100
AcDbEntity
  8
MaVisibleEdge
100
AcDbLine
 10
266.6476671588593
 20
454.2904059903418
 30
0.0
 11
302.6476671588593
 21
454.2904059903418
 31
0.0
  0
LINE
  5
3C9
330
77
100
AcDbEntity
  8
MaVisibleEdge
100
AcDbLine
 10
267.6476671588594
 20
461.7904059903418
 30
0.0
 11
301.6476671588594
 21
461.7904059903418
 31
0.0
  0
LINE
  5
3CA
330
77
100
AcDbEntity
  8
MaVisibleEdge
100
AcDbLine
 10
266.6476671588593
 20
460.7904059903418
 30
0.0
 11
302.6476671588593
 21
460.7904059903418
 31
0.0
  0
ARC
  5
3CB
330
77
100
AcDbEntity
  8
MaVisibleEdge
100
AcDbCircle
 10
284.6278136516607
 20
455.1355876852475
 30
0.0
 40
18.00000000000001
100
AcDbArc
 50
182.6912864356293
 51
213.3475706805802
  0
ARC
  5
3CC
330
77
100
AcDbEntity
  8
MaVisibleEdge
100
AcDbCircle
 10
284.667520666058
 20
455.1355876852475
 30
0.0
 40
18.00000000000002
100
AcDbArc
 50
326.6524293194198
 51
357.3087135643707
  0
LINE
  5
3CD
330
77
100
AcDbEntity
  8
MaVisibleEdge
100
AcDbLine
 10
301.6476671588594
 20
462.7904059903418
 30
0.0
 11
301.6476671588594
 21
461.7904059903418
 31
0.0
  0
LINE
  5
3CE
330
77
100
AcDbEntity
  8
MaVisibleEdge
100
AcDbLine
 10
267.6476671588594
 20
462.7904059903418
 30
0.0
 11
267.6476671588594
 21
461.7904059903418
 31
0.0
  0
ARC
  5
3CF
330
77
100
AcDbEntity
  8
MaVisibleEdge
100
AcDbCircle
 10
267.7476546022118
 20
460.7954172913246
 30
0.0
 40
1.000000000000008
100
AcDbArc
 50
95.73844741039355
 51
180.2871275979756
  0
ARC
  5
3D0
330
77
100
AcDbEntity
  8
MaVisibleEdge
100
AcDbCircle
 10
301.547679715507
 20
460.7954172913246
 30
0.0
 40
1.000000000000008
100
AcDbArc
 50
359.7128724020244
 51
84.26155258960646
  0
LINE
  5
3D1
330
77
100
AcDbEntity
  8
MaVisibleEdge
100
AcDbLine
 10
302.6476671588593
 20
460.7904059903418
 30
0.0
 11
302.6476671588593
 21
454.2904059903418
 31
0.0
  0
LINE
  5
3D2
330
77
100
AcDbEntity
  8
MaVisibleEdge
100
AcDbLine
 10
266.6476671588593
 20
460.7904059903418
 30
0.0
 11
266.6476671588593
 21
454.2904059903418
 31
0.0
  0
LINE
  5
3D3
330
77
100
AcDbEntity
  8
MaVisibleEdge
100
AcDbLine
 10
275.6476671588593
 20
266.7904059903418
 30
0.0
 11
293.6476671588593
 21
266.7904059903418
 31
0.0
  0
LINE
  5
3D4
330
77
100
AcDbEntity
  8
MaVisibleEdge
100
AcDbLine
 10
275.6476671588593
 20
266.7904059903418
 30
0.0
 11
275.6476671588593
 21
287.4904059903418
 31
0.0
  0
LINE
  5
3D5
330
77
100
AcDbEntity
  8
MaVisibleEdge
100
AcDbLine
 10
275.6476671588593
 20
311.7904059903418
 30
0.0
 11
275.6476671588593
 21
444.7904059903418
 31
0.0
  0
LINE
  5
3D6
330
77
100
AcDbEntity
  8
MaVisibleEdge
100
AcDbLine
 10
293.6476671588593
 20
266.7904059903418
 30
0.0
 11
293.6476671588593
 21
287.4904059903418
 31
0.0
  0
LINE
  5
3D7
330
77
100
AcDbEntity
  8
MaVisibleEdge
100
AcDbLine
 10
293.6476671588593
 20
311.7904059903418
 30
0.0
 11
293.6476671588593
 21
444.7904059903418
 31
0.0
  0
LINE
  5
3D8
330
77
100
AcDbEntity
  8
MaVisibleEdge
100
AcDbLine
 10
270.4952390760069
 20
287.4904059903418
 30
0.0
 11
298.8000952417118
 21
287.4904059903418
 31
0.0
  0
LINE
  5
3D9
330
77
100
AcDbEntity
  8
MaVisibleEdge
100
AcDbLine
 10
263.6476671588594
 20
295.9904059903418
 30
0.0
 11
305.6476671588594
 21
295.9904059903418
 31
0.0
  0
LINE
  5
3DA
330
77
100
AcDbEntity
  8
MaVisibleEdge
100
AcDbLine
 10
267.0476671588593
 20
311.7904059903418
 30
0.0
 11
302.2476671588594
 21
311.7904059903418
 31
0.0
  0
LINE
  5
3DB
330
77
100
AcDbEntity
  8
MaVisibleEdge thinFlag
100
AcDbLine
 10
264.0476671588594
 20
308.7904059903418
 30
0.0
 11
305.2476671588594
 21
308.7904059903418
 31
0.0
  0
LINE
  5
3DC
330
77
100
AcDbEntity
  8
MaVisibleEdge
100
AcDbLine
 10
265.0476671588593
 20
305.2904059903418
 30
0.0
 11
304.2476671588594
 21
305.2904059903418
 31
0.0
  0
LINE
  5
3DD
330
77
100
AcDbEntity
  8
MaVisibleEdge thinFlag
100
AcDbLine
 10
264.0476671588594
 20
306.2904059903418
 30
0.0
 11
305.2476671588594
 21
306.2904059903418
 31
0.0
  0
LINE
  5
3DE
330
77
100
AcDbEntity
  8
MaVisibleEdge
100
AcDbLine
 10
270.3976671588594
 20
295.9904059903418
 30
0.0
 11
270.3976671588594
 21
305.2904059903418
 31
0.0
  0
LINE
  5
3DF
330
77
100
AcDbEntity
  8
MaVisibleEdge
100
AcDbLine
 10
298.8976671588594
 20
295.9904059903418
 30
0.0
 11
298.8976671588594
 21
305.2904059903418
 31
0.0
  0
LINE
  5
3E0
330
77
100
AcDbEntity
  8
MaVisibleEdge
100
AcDbLine
 10
270.4952390760069
 20
287.4904059903418
 30
0.0
 11
263.6476671588594
 21
295.9904059903418
 31
0.0
  0
LINE
  5
3E1
330
77
100
AcDbEntity
  8
MaVisibleEdge
100
AcDbLine
 10
298.8000952417118
 20
287.4904059903418
 30
0.0
 11
305.6476671588594
 21
295.9904059903418
 31
0.0
  0
ARC
  5
3E2
330
77
100
AcDbEntity
  8
MaVisibleEdge
100
AcDbCircle
 10
267.0476671588593
 20
308.7904059903418
 30
0.0
 40
3.000000000000002
100
AcDbArc
 50
90.0
 51
180.0
  0
ARC
  5
3E3
330
77
100
AcDbEntity
  8
MaVisibleEdge
100
AcDbCircle
 10
302.2476671588594
 20
308.7904059903418
 30
0.0
 40
3.000000000000002
100
AcDbArc
 50
0.0
 51
90.0
  0
ARC
  5
3E4
330
77
100
AcDbEntity
  8
MaVisibleEdge
100
AcDbCircle
 10
265.0476671588593
 20
306.2904059903418
 30
0.0
 40
1.0
100
AcDbArc
 50
180.0
 51
270.0
  0
ARC
  5
3E5
330
77
100
AcDbEntity
  8
MaVisibleEdge
100
AcDbCircle
 10
304.2476671588594
 20
306.2904059903418
 30
0.0
 40
1.000000000000001
100
AcDbArc
 50
270.0
 51
0.0
  0
LINE
  5
3E6
330
77
100
AcDbEntity
  8
MaVisibleEdge
100
AcDbLine
 10
264.0476671588594
 20
306.2904059903418
 30
0.0
 11
264.0476671588594
 21
308.7904059903418
 31
0.0
  0
LINE
  5
3E7
330
77
100
AcDbEntity
  8
MaVisibleEdge
100
AcDbLine
 10
305.2476671588594
 20
306.2904059903418
 30
0.0
 11
305.2476671588594
 21
308.7904059903418
 31
0.0
  0
LINE
  5
3E8
330
77
100
AcDbEntity
  8
MaVisibleEdge
100
AcDbLine
 10
229.6476671588593
 20
463.7904059903418
 30
0.0
 11
229.6476671588594
 21
523.7904059903419
 31
0.0
  0
LINE
  5
3E9
330
77
100
AcDbEntity
  8
MaVisibleEdge thinFlag
100
AcDbLine
 10
230.6234080465395
 20
464.5714774172659
 30
0.0
 11
230.6234080465396
 21
523.0093345634178
 31
0.0
  0
ARC
  5
3EA
330
77
100
AcDbEntity
  8
MaVisibleEdge
100
AcDbCircle
 10
229.6476671588593
 20
464.7904059903417
 30
0.0
 40
1.000000000000002
100
AcDbArc
 50
269.999999999998
 51
347.3538892609306
  0
ARC
  5
3EB
330
77
100
AcDbEntity
  8
MaVisibleEdge
100
AcDbCircle
 10
229.6476671588594
 20
522.7904059903419
 30
0.0
 40
1.000000000000001
100
AcDbArc
 50
12.64611073906945
 51
90.0
  0
LINE
  5
3EC
330
77
100
AcDbEntity
  8
MaVisibleEdge
100
AcDbLine
 10
234.6476671588593
 20
482.5071634875762
 30
0.0
 11
230.6234080465395
 21
464.5714774172659
 31
0.0
  0
LINE
  5
3ED
330
77
100
AcDbEntity
  8
MaVisibleEdge
100
AcDbLine
 10
234.6476671588594
 20
505.0736484931075
 30
0.0
 11
230.6234080465396
 21
523.0093345634178
 31
0.0
  0
LINE
  5
3EE
330
77
100
AcDbEntity
  8
MaVisibleEdge thinFlag
100
AcDbLine
 10
247.4681799793722
 20
508.640818489318
 30
0.0
 11
261.8271543383465
 21
508.640818489318
 31
0.0
  0
LINE
  5
3EF
330
77
100
AcDbEntity
  8
MaVisibleEdge thinFlag
100
AcDbLine
 10
262.6476671588593
 20
507.6570581768435
 30
0.0
 11
246.6476671588594
 21
507.6570581768435
 31
0.0
  0
ARC
  5
3F0
330
77
100
AcDbEntity
  8
MaVisibleEdge
100
AcDbCircle
 10
247.6476671588594
 20
507.6570581768435
 30
0.0
 40
1.0
100
AcDbArc
 50
100.3398908939265
 51
180.0
  0
ARC
  5
3F1
330
77
100
AcDbEntity
  8
MaVisibleEdge
100
AcDbCircle
 10
261.6476671588594
 20
507.6570581768435
 30
0.0
 40
1.0
100
AcDbArc
 50
0.0
 51
79.66010910607145
  0
ARC
  5
3F2
330
77
100
AcDbEntity
  8
MaVisibleEdge
100
AcDbCircle
 10
254.6476671588593
 20
469.2904059903418
 30
0.0
 40
40.0
100
AcDbArc
 50
79.66010910607248
 51
100.3398908939276
  0
LINE
  5
3F3
330
77
100
AcDbEntity
  8
MaVisibleEdge
100
AcDbLine
 10
262.6476671588593
 20
507.6570581768435
 30
0.0
 11
262.6476671588593
 21
506.2980529015769
 31
0.0
  0
LINE
  5
3F4
330
77
100
AcDbEntity
  8
MaVisibleEdge
100
AcDbLine
 10
246.6476671588594
 20
507.6570581768435
 30
0.0
 11
246.6476671588594
 21
506.2904059903417
 31
0.0
  0
CIRCLE
  5
3F5
330
77
100
AcDbEntity
  8
MaVisibleEdge
100
AcDbCircle
 10
104.7812376799438
 20
153.4371291767634
 30
0.0
 40
18.25
  0
SPLINE
  5
3F6
330
77
100
AcDbEntity
  8
MaVisibleEdge
100
AcDbSpline
210
0.0
220
0.0
230
1.0
 70
     8
 71
     3
 72
    16
 73
    12
 74
     0
 42
0.0000000001
 43
0.0000000001
 40
-0.7928322423818449
 40
-0.7928322423818449
 40
-0.7928322423818449
 40
-0.7928322423818449
 40
-0.7025169521808808
 40
-0.7025169521808808
 40
-0.6356007536186316
 40
-0.6356007536186316
 40
-0.5784150913119909
 40
-0.5784150913119909
 40
-0.5075050538792042
 40
-0.5075050538792042
 40
-0.4300477042268328
 40
-0.4300477042268328
 40
-0.4300477042268328
 40
-0.4300477042268328
 10
106.4888693320793
 20
175.6215041767543
 30
0.0
 10
106.2102593340478
 20
175.5606308299343
 30
0.0
 10
105.9290934886915
 20
175.5122513988943
 30
0.0
 10
105.433873679665
 20
175.4548318784185
 30
0.0
 10
105.2230982263945
 20
175.4390319052766
 30
0.0
 10
104.8296480663546
 20
175.4266962856058
 30
0.0
 10
104.6489091608998
 20
175.4277400230418
 30
0.0
 10
104.2429769258681
 20
175.4450932306578
 30
0.0
 10
104.0199238756479
 20
175.4649093266284
 30
0.0
 10
103.5535775023535
 20
175.5262306862299
 30
0.0
 10
103.312511858794
 20
175.5693057717808
 30
0.0
 10
103.0736060278082
 20
175.6215041767543
 30
0.0
  0
LINE
  5
3F7
330
77
100
AcDbEntity
  8
MaVisibleEdge thinFlag
100
AcDbLine
 10
113.2812376799438
 20
203.4371291767543
 30
0.0
 11
113.2812376799438
 21
173.9995341917325
 31
0.0
  0
LINE
  5
3F8
330
77
100
AcDbEntity
  8
MaVisibleEdge thinFlag
100
AcDbLine
 10
96.28123767994376
 20
173.9995341917325
 30
0.0
 11
96.28123767994376
 21
203.4371291767543
 31
0.0
  0
LINE
  5
3F9
330
77
100
AcDbEntity
  8
MaVisibleEdge
100
AcDbLine
 10
92.28123767994377
 20
203.4371291767532
 30
0.0
 11
92.28123767994377
 21
168.3640344152813
 31
0.0
  0
ARC
  5
3FA
330
77
100
AcDbEntity
  8
MaVisibleEdge
100
AcDbCircle
 10
121.2812376799437
 20
168.3640344152813
 30
0.0
 40
3.999999999999983
100
AcDbArc
 50
180.0
 51
222.1344131468935
  0
LINE
  5
3FB
330
77
100
AcDbEntity
  8
MaVisibleEdge thinFlag
100
AcDbLine
 10
111.7531477923033
 20
170.3029220542095
 30
0.0
 11
113.2812376799438
 21
173.9995341917325
 31
0.0
  0
LINE
  5
3FC
330
77
100
AcDbEntity
  8
MaVisibleEdge
100
AcDbLine
 10
117.2812376799438
 20
168.3640344152813
 30
0.0
 11
117.2812376799438
 21
203.4371291767532
 31
0.0
  0
ARC
  5
3FD
330
77
100
AcDbEntity
  8
MaVisibleEdge
100
AcDbCircle
 10
88.28123767994375
 20
168.3640344152813
 30
0.0
 40
4.000000000000013
100
AcDbArc
 50
317.8655868531063
 51
0.0
  0
LINE
  5
3FE
330
77
100
AcDbEntity
  8
MaVisibleEdge thinFlag
100
AcDbLine
 10
96.28123767994376
 20
173.9995341917325
 30
0.0
 11
97.80932756758421
 21
170.3029220542095
 31
0.0
  0
LINE
  5
3FF
330
77
100
AcDbEntity
  8
MaVisibleEdge
100
AcDbLine
 10
96.28123767994376
 20
203.4371291767543
 30
0.0
 11
113.2812376799438
 21
203.4371291767543
 31
0.0
  0
LINE
  5
400
330
77
100
AcDbEntity
  8
MaVisibleEdge
100
AcDbLine
 10
96.28123767994374
 20
203.4371291767543
 30
0.0
 11
92.28123767994375
 21
203.4371291767532
 31
0.0
  0
LINE
  5
401
330
77
100
AcDbEntity
  8
MaVisibleEdge
100
AcDbLine
 10
117.2812376799438
 20
203.4371291767532
 30
0.0
 11
113.2812376799438
 21
203.4371291767543
 31
0.0
  0
LINE
  5
402
330
77
100
AcDbEntity
  8
MaVisibleEdge
100
AcDbLine
 10
94.73123767994378
 20
215.4371291767506
 30
0.0
 11
114.8312376799438
 21
215.4371291767506
 31
0.0
  0
LINE
  5
403
330
77
100
AcDbEntity
  8
MaVisibleEdge
100
AcDbLine
 10
116.0312376799437
 20
214.2371291767506
 30
0.0
 11
93.53123767994377
 21
214.2371291767506
 31
0.0
  0
LINE
  5
404
330
77
100
AcDbEntity
  8
MaVisibleEdge
100
AcDbLine
 10
114.8312376799438
 20
215.4371291767506
 30
0.0
 11
116.0312376799437
 21
214.2371291767506
 31
0.0
  0
LINE
  5
405
330
77
100
AcDbEntity
  8
MaVisibleEdge
100
AcDbLine
 10
94.73123767994378
 20
215.4371291767506
 30
0.0
 11
93.53123767994377
 21
214.2371291767506
 31
0.0
  0
LINE
  5
406
330
77
100
AcDbEntity
  8
MaVisibleEdge
100
AcDbLine
 10
116.0312376799437
 20
214.2371291767506
 30
0.0
 11
116.0312376799437
 21
208.4371291767506
 31
0.0
  0
LINE
  5
407
330
77
100
AcDbEntity
  8
MaVisibleEdge
100
AcDbLine
 10
93.53123767994377
 20
214.2371291767506
 30
0.0
 11
93.53123767994377
 21
208.4371291767506
 31
0.0
  0
CIRCLE
  5
408
330
77
100
AcDbEntity
  8
MaVisibleEdge thinFlag
100
AcDbCircle
 10
104.7812376799438
 20
153.4371291767705
 30
0.0
 40
16.84931506849311
  0
CIRCLE
  5
409
330
77
100
AcDbEntity
  8
MaVisibleEdge
100
AcDbCircle
 10
104.7812376799438
 20
153.43712917677
 30
0.0
 40
17.99999999999996
  0
ARC
  5
40A
330
77
100
AcDbEntity
  8
MaVisibleEdge
100
AcDbCircle
 10
104.7812376799438
 20
153.4371291766919
 30
0.0
 40
21.0
100
AcDbArc
 50
126.529607229735
 51
53.47039277026504
  0
ARC
  5
40B
330
77
100
AcDbEntity
  8
MaVisibleEdge
100
AcDbCircle
 10
104.7812376799438
 20
153.4371291766957
 30
0.0
 40
20.6
100
AcDbArc
 50
127.3582001201236
 51
52.64179987987652
  0
LINE
  5
40C
330
77
100
AcDbEntity
  8
MaVisibleEdge
100
AcDbLine
 10
74.78123767994382
 20
208.4371291767506
 30
0.0
 11
134.7812376799437
 21
208.4371291767506
 31
0.0
  0
LINE
  5
40D
330
77
100
AcDbEntity
  8
MaVisibleEdge thinFlag
100
AcDbLine
 10
75.56230910686792
 20
207.4613882890704
 30
0.0
 11
134.0001662530196
 21
207.4613882890704
 31
0.0
  0
ARC
  5
40E
330
77
100
AcDbEntity
  8
MaVisibleEdge
100
AcDbCircle
 10
75.78123767994383
 20
208.4371291767506
 30
0.0
 40
0.9999999999999996
100
AcDbArc
 50
180.0
 51
257.353889260932
  0
ARC
  5
40F
330
77
100
AcDbEntity
  8
MaVisibleEdge
100
AcDbCircle
 10
133.7812376799437
 20
208.4371291767506
 30
0.0
 40
0.9999999999999998
100
AcDbArc
 50
282.6461107390685
 51
0.0
  0
LINE
  5
410
330
77
100
AcDbEntity
  8
MaVisibleEdge
100
AcDbLine
 10
93.49799517717821
 20
203.4371291767506
 30
0.0
 11
75.56230910686792
 21
207.4613882890704
 31
0.0
  0
LINE
  5
411
330
77
100
AcDbEntity
  8
MaVisibleEdge
100
AcDbLine
 10
116.0644801827093
 20
203.4371291767506
 30
0.0
 11
134.0001662530196
 21
207.4613882890704
 31
0.0
  0
CIRCLE
  5
412
330
77
100
AcDbEntity
  8
MaVisibleEdge thinFlag
100
AcDbCircle
 10
104.7812376799438
 20
183.437129176755
 30
0.0
 40
7.179487179487185
  0
CIRCLE
  5
413
330
77
100
AcDbEntity
  8
MaVisibleEdge
100
AcDbCircle
 10
104.7812376799438
 20
183.4371291767547
 30
0.0
 40
8.000000000000003
  0
ENDSEC
  0
SECTION
  2
OBJECTS
  0
DICTIONARY
  5
C
330
0
100
AcDbDictionary
281
     1
  3
ACAD_COLOR
350
6E
  3
ACAD_GROUP
350
D
  3
ACAD_LAYOUT
350
6D
  3
ACAD_MATERIAL
350
10
  3
ACAD_MLEADERSTYLE
350
71
  3
ACAD_MLINESTYLE
350
6A
  3
ACAD_PLOTSETTINGS
350
6C
  3
ACAD_PLOTSTYLENAME
350
E
  3
ACAD_SCALELIST
350
3D
  3
ACAD_TABLESTYLE
350
6F
  3
ACAD_VISUALSTYLE
350
29
  3
ACDB_RECOMPOSE_DATA
350
495
  3
AcDbVariableDictionary
350
414
  0
DICTIONARY
  5
41F
330
104
100
AcDbDictionary
280
     1
281
     1
  3
ACAD_MLATT
360
421
  3
ACAD_XREC_ROUNDTRIP
360
420
  0
DICTIONARY
  5
423
330
243
100
AcDbDictionary
280
     1
281
     1
  3
ACAD_MLATT
360
425
  3
ACAD_XREC_ROUNDTRIP
360
424
  0
DICTIONARY
  5
426
330
245
100
AcDbDictionary
280
     1
281
     1
  3
ACAD_MLATT
360
428
  3
ACAD_XREC_ROUNDTRIP
360
427
  0
DICTIONARY
  5
429
330
246
100
AcDbDictionary
280
     1
281
     1
  3
ACAD_MLATT
360
42B
  3
ACAD_XREC_ROUNDTRIP
360
42A
  0
DICTIONARY
  5
42C
330
248
100
AcDbDictionary
280
     1
281
     1
  3
ACAD_MLATT
360
42E
  3
ACAD_XREC_ROUNDTRIP
360
42D
  0
DICTIONARY
  5
42F
330
249
100
AcDbDictionary
280
     1
281
     1
  3
ACAD_MLATT
360
431
  3
ACAD_XREC_ROUNDTRIP
360
430
  0
DICTIONARY
  5
432
330
24B
100
AcDbDictionary
280
     1
281
     1
  3
ACAD_MLATT
360
434
  3
ACAD_XREC_ROUNDTRIP
360
433
  0
DICTIONARY
  5
435
330
24C
100
AcDbDictionary
280
     1
281
     1
  3
ACAD_MLATT
360
437
  3
ACAD_XREC_ROUNDTRIP
360
436
  0
DICTIONARY
  5
438
330
24D
100
AcDbDictionary
280
     1
281
     1
  3
ACAD_MLATT
360
43A
  3
ACAD_XREC_ROUNDTRIP
360
439
  0
DICTIONARY
  5
43B
330
24E
100
AcDbDictionary
280
     1
281
     1
  3
ACAD_MLATT
360
43D
  3
ACAD_XREC_ROUNDTRIP
360
43C
  0
DICTIONARY
  5
43E
330
24F
100
AcDbDictionary
280
     1
281
     1
  3
ACAD_MLATT
360
440
  3
ACAD_XREC_ROUNDTRIP
360
43F
  0
DICTIONARY
  5
441
330
250
100
AcDbDictionary
280
     1
281
     1
  3
ACAD_MLATT
360
443
  3
ACAD_XREC_ROUNDTRIP
360
442
  0
DICTIONARY
  5
444
330
251
100
AcDbDictionary
280
     1
281
     1
  3
ACAD_MLATT
360
446
  3
ACAD_XREC_ROUNDTRIP
360
445
  0
DICTIONARY
  5
447
330
252
100
AcDbDictionary
280
     1
281
     1
  3
ACAD_MLATT
360
449
  3
ACAD_XREC_ROUNDTRIP
360
448
  0
DICTIONARY
  5
44A
330
253
100
AcDbDictionary
280
     1
281
     1
  3
ACAD_MLATT
360
44C
  3
ACAD_XREC_ROUNDTRIP
360
44B
  0
DICTIONARY
  5
44D
330
254
100
AcDbDictionary
280
     1
281
     1
  3
ACAD_MLATT
360
44F
  3
ACAD_XREC_ROUNDTRIP
360
44E
  0
DICTIONARY
  5
450
330
255
100
AcDbDictionary
280
     1
281
     1
  3
ACAD_MLATT
360
452
  3
ACAD_XREC_ROUNDTRIP
360
451
  0
DICTIONARY
  5
453
330
256
100
AcDbDictionary
280
     1
281
     1
  3
ACAD_MLATT
360
455
  3
ACAD_XREC_ROUNDTRIP
360
454
  0
DICTIONARY
  5
456
330
257
100
AcDbDictionary
280
     1
281
     1
  3
ACAD_MLATT
360
458
  3
ACAD_XREC_ROUNDTRIP
360
457
  0
DICTIONARY
  5
459
330
258
100
AcDbDictionary
280
     1
281
     1
  3
ACAD_MLATT
360
45B
  3
ACAD_XREC_ROUNDTRIP
360
45A
  0
DICTIONARY
  5
45C
330
25B
100
AcDbDictionary
280
     1
281
     1
  3
ACAD_MLATT
360
45E
  3
ACAD_XREC_ROUNDTRIP
360
45D
  0
DICTIONARY
  5
45F
330
25C
100
AcDbDictionary
280
     1
281
     1
  3
ACAD_MLATT
360
461
  3
ACAD_XREC_ROUNDTRIP
360
460
  0
DICTIONARY
  5
462
330
25D
100
AcDbDictionary
280
     1
281
     1
  3
ACAD_MLATT
360
464
  3
ACAD_XREC_ROUNDTRIP
360
463
  0
DICTIONARY
  5
465
330
25E
100
AcDbDictionary
280
     1
281
     1
  3
ACAD_MLATT
360
467
  3
ACAD_XREC_ROUNDTRIP
360
466
  0
DICTIONARY
  5
468
330
25F
100
AcDbDictionary
280
     1
281
     1
  3
ACAD_MLATT
360
46A
  3
ACAD_XREC_ROUNDTRIP
360
469
  0
DICTIONARY
  5
46B
330
260
100
AcDbDictionary
280
     1
281
     1
  3
ACAD_MLATT
360
46D
  3
ACAD_XREC_ROUNDTRIP
360
46C
  0
DICTIONARY
  5
46E
330
261
100
AcDbDictionary
280
     1
281
     1
  3
ACAD_MLATT
360
470
  3
ACAD_XREC_ROUNDTRIP
360
46F
  0
DICTIONARY
  5
471
330
262
100
AcDbDictionary
280
     1
281
     1
  3
ACAD_MLATT
360
473
  3
ACAD_XREC_ROUNDTRIP
360
472
  0
DICTIONARY
  5
474
330
263
100
AcDbDictionary
280
     1
281
     1
  3
ACAD_MLATT
360
476
  3
ACAD_XREC_ROUNDTRIP
360
475
  0
DICTIONARY
  5
477
330
264
100
AcDbDictionary
280
     1
281
     1
  3
ACAD_MLATT
360
479
  3
ACAD_XREC_ROUNDTRIP
360
478
  0
DICTIONARY
  5
47A
330
265
100
AcDbDictionary
280
     1
281
     1
  3
ACAD_MLATT
360
47C
  3
ACAD_XREC_ROUNDTRIP
360
47B
  0
DICTIONARY
  5
47D
330
266
100
AcDbDictionary
280
     1
281
     1
  3
ACAD_MLATT
360
47F
  3
ACAD_XREC_ROUNDTRIP
360
47E
  0
DICTIONARY
  5
480
330
267
100
AcDbDictionary
280
     1
281
     1
  3
ACAD_MLATT
360
482
  3
ACAD_XREC_ROUNDTRIP
360
481
  0
DICTIONARY
  5
483
330
268
100
AcDbDictionary
280
     1
281
     1
  3
ACAD_MLATT
360
485
  3
ACAD_XREC_ROUNDTRIP
360
484
  0
DICTIONARY
  5
486
330
269
100
AcDbDictionary
280
     1
281
     1
  3
ACAD_MLATT
360
488
  3
ACAD_XREC_ROUNDTRIP
360
487
  0
DICTIONARY
  5
489
330
26A
100
AcDbDictionary
280
     1
281
     1
  3
ACAD_MLATT
360
48B
  3
ACAD_XREC_ROUNDTRIP
360
48A
  0
DICTIONARY
  5
48C
330
26B
100
AcDbDictionary
280
     1
281
     1
  3
ACAD_MLATT
360
48E
  3
ACAD_XREC_ROUNDTRIP
360
48D
  0
DICTIONARY
  5
48F
330
26C
100
AcDbDictionary
280
     1
281
     1
  3
ACAD_MLATT
360
491
  3
ACAD_XREC_ROUNDTRIP
360
490
  0
DICTIONARY
  5
492
330
26D
100
AcDbDictionary
280
     1
281
     1
  3
ACAD_MLATT
360
494
  3
ACAD_XREC_ROUNDTRIP
360
493
  0
DICTIONARY
  5
6E
102
{ACAD_REACTORS
330
C
102
}
330
C
100
AcDbDictionary
281
     1
  0
DICTIONARY
  5
D
102
{ACAD_REACTORS
330
C
102
}
330
C
100
AcDbDictionary
281
     1
  0
DICTIONARY
  5
6D
102
{ACAD_REACTORS
330
C
102
}
330
C
100
AcDbDictionary
281
     1
  3
Layout1
350
76
  3
Layout2
350
7E
  3
Model
350
7A
  0
DICTIONARY
  5
10
102
{ACAD_REACTORS
330
C
102
}
330
C
100
AcDbDictionary
281
     1
  3
ByBlock
350
19
  3
ByLayer
350
11
  3
Global
350
21
  0
DICTIONARY
  5
71
102
{ACAD_REACTORS
330
C
102
}
330
C
100
AcDbDictionary
281
     1
  3
Standard
350
72
  0
DICTIONARY
  5
6A
102
{ACAD_REACTORS
330
C
102
}
330
C
100
AcDbDictionary
281
     1
  3
Standard
350
6B
  0
DICTIONARY
  5
6C
102
{ACAD_REACTORS
330
C
102
}
330
C
100
AcDbDictionary
281
     1
  0
ACDBDICTIONARYWDFLT
  5
E
102
{ACAD_REACTORS
330
C
102
}
330
C
100
AcDbDictionary
281
     1
  3
Normal
350
F
100
AcDbDictionaryWithDefault
340
F
  0
DICTIONARY
  5
3D
102
{ACAD_REACTORS
330
C
102
}
330
C
100
AcDbDictionary
281
     1
  3
A0
350
3E
  3
A1
350
3F
  3
A2
350
40
  3
A3
350
41
  3
A4
350
42
  3
A5
350
43
  3
A6
350
44
  3
A7
350
45
  3
A8
350
46
  3
A9
350
47
  3
B0
350
48
  3
B1
350
49
  3
B2
350
4A
  3
B3
350
4B
  3
B4
350
4C
  3
B5
350
4D
  3
B6
350
4E
  3
B7
350
4F
  3
B8
350
50
  3
B9
350
51
  3
C0
350
52
  3
C1
350
53
  3
C2
350
54
  3
C3
350
55
  3
C4
350
56
  3
C5
350
57
  3
C6
350
58
  3
C7
350
59
  3
C8
350
5A
  3
C9
350
5B
  3
D0
350
5C
  3
D1
350
5D
  3
D2
350
5E
  0
DICTIONARY
  5
6F
102
{ACAD_REACTORS
330
C
102
}
330
C
100
AcDbDictionary
281
     1
  3
Standard
350
70
  0
DICTIONARY
  5
29
102
{ACAD_REACTORS
330
C
102
}
330
C
100
AcDbDictionary
281
     1
  3
2dWireframe
350
2F
  3
3D Hidden
350
31
  3
3dWireframe
350
30
  3
Basic
350
2E
  3
Brighten
350
35
  3
ColorChange
350
39
  3
Conceptual
350
32
  3
Dim
350
34
  3
EdgeColorOff
350
3C
  3
Facepattern
350
38
  3
Flat
350
2A
  3
FlatWithEdges
350
2B
  3
Gouraud
350
2C
  3
GouraudWithEdges
350
2D
  3
JitterOff
350
3A
  3
Linepattern
350
37
  3
OverhangOff
350
3B
  3
Realistic
350
33
  3
Thicken
350
36
  0
XRECORD
  5
495
102
{ACAD_REACTORS
330
C
102
}
330
C
100
AcDbXrecord
280
     1
 90
        1
330
70
330
104
330
243
330
245
330
246
330
248
330
249
330
24B
330
24C
330
24D
330
24E
330
24F
330
250
330
251
330
252
330
253
330
254
330
255
330
256
330
257
330
258
330
25B
330
25C
330
25D
330
25E
330
25F
330
260
330
261
330
262
330
263
330
264
330
265
330
266
330
267
330
268
330
269
330
26A
330
26B
330
26C
330
26D
  0
DICTIONARY
  5
414
102
{ACAD_REACTORS
330
C
102
}
330
C
100
AcDbDictionary
281
     1
  3
CANNOSCALE
350
418
  3
CMLEADERSTYLE
350
416
  3
CTABLESTYLE
350
415
  3
LAYEREVAL
350
41A
  3
LAYERNOTIFY
350
41B
  3
LIGHTINGUNITS
350
419
  3
MSLTSCALE
350
417
  3
XCLIPFRAME
350
41C
  0
XRECORD
  5
421
102
{ACAD_REACTORS
330
41F
102
}
330
41F
100
AcDbXrecord
280
     1
 70
     4
 70
     0
 70
     0
 40
1.0
  2
<Enter_Prompt_for_Field>
  1
Embedded Object
 10
0.0
 20
0.0
 30
0.0
 40
2.5
 41
0.0
 46
0.0
 71
     5
 72
     5
  1
\W0.9000;
  7
Text Style49
 73
     1
 44
1.0
  0
XRECORD
  5
420
102
{ACAD_REACTORS
330
41F
102
}
330
41F
100
AcDbXrecord
280
     1
102
ACAD_MATT_HEIGHT
140
2.5
  0
XRECORD
  5
425
102
{ACAD_REACTORS
330
423
102
}
330
423
100
AcDbXrecord
280
     1
 70
     4
 70
     0
 70
     0
 40
1.0
  2
Title
  1
Embedded Object
 10
206.6
 20
126.0241925130958
 30
0.0
 40
5.0
 41
89.14362202638884
 46
0.0
 71
     4
 72
     5
  1
Urinaldruckspüler DN15
  7
Text Style20
 73
     1
 44
1.0
  0
XRECORD
  5
424
102
{ACAD_REACTORS
330
423
102
}
330
423
100
AcDbXrecord
280
     1
102
ACAD_MATT_HEIGHT
140
5.0
  0
XRECORD
  5
428
102
{ACAD_REACTORS
330
426
102
}
330
426
100
AcDbXrecord
280
     1
 70
     4
 70
     0
 70
     0
 40
1.0
  2
Auxiliary_Remark1
  1
Embedded Object
 10
206.6000000000001
 20
119.5241925130958
 30
0.0
 40
3.499999940395355
 41
88.8588638187849
 46
0.0
 71
     4
 72
     5
  1
AQRM460
  7
Text Style9
 73
     1
 44
1.0
  0
XRECORD
  5
427
102
{ACAD_REACTORS
330
426
102
}
330
426
100
AcDbXrecord
280
     1
102
ACAD_MATT_HEIGHT
140
3.499999940395355
  0
XRECORD
  5
42B
102
{ACAD_REACTORS
330
429
102
}
330
429
100
AcDbXrecord
280
     1
 70
     4
 70
     0
 70
     0
 40
1.0
  2
Auxiliary_Remark2
  1
Embedded Object
 10
206.6
 20
113.0241925130958
 30
0.0
 40
3.499999940395355
 41
88.50560020660971
 46
0.0
 71
     4
 72
     5
  1
Marketingzeichnung
  7
Text Style9
 73
     1
 44
1.0
  0
XRECORD
  5
42A
102
{ACAD_REACTORS
330
429
102
}
330
429
100
AcDbXrecord
280
     1
102
ACAD_MATT_HEIGHT
140
3.499999940395355
  0
XRECORD
  5
42E
102
{ACAD_REACTORS
330
42C
102
}
330
42C
100
AcDbXrecord
280
     1
 70
     4
 70
     0
 70
     0
 40
1.0
  2
Part_number
  1
Embedded Object
 10
248.1
 20
141.0241925130958
 30
0.0
 40
2.5
 41
35.7212232739224
 46
0.0
 71
     4
 72
     5
  1
25210222
  7
Text Style38
 73
     1
 44
1.0
  0
XRECORD
  5
42D
102
{ACAD_REACTORS
330
42C
102
}
330
42C
100
AcDbXrecord
280
     1
102
ACAD_MATT_HEIGHT
140
2.5
  0
XRECORD
  5
431
102
{ACAD_REACTORS
330
42F
102
}
330
42F
100
AcDbXrecord
280
     1
 70
     4
 70
     0
 70
     0
 40
1.0
  2
Document_Number
  1
Embedded Object
 10
218.1
 20
104.2741925130957
 30
0.0
 40
5.0
 41
45.26060067066413
 46
0.0
 71
     4
 72
     5
  1
0222-215254
  7
Text Style20
 73
     1
 44
1.0
  0
XRECORD
  5
430
102
{ACAD_REACTORS
330
42F
102
}
330
42F
100
AcDbXrecord
280
     1
102
ACAD_MATT_HEIGHT
140
5.0
  0
XRECORD
  5
434
102
{ACAD_REACTORS
330
432
102
}
330
432
100
AcDbXrecord
280
     1
 70
     4
 70
     0
 70
     0
 40
1.0
  2
Revision_Memo_1
  1
Embedded Object
 10
155.6
 20
138.0241925130958
 30
0.0
 40
2.000000029802322
 41
46.75017271010267
 46
0.0
 71
     1
 72
     5
  1

  7
Text Style40
 73
     1
 44
1.0
  0
XRECORD
  5
433
102
{ACAD_REACTORS
330
432
102
}
330
432
100
AcDbXrecord
280
     1
102
ACAD_MATT_HEIGHT
140
2.000000029802322
  0
XRECORD
  5
437
102
{ACAD_REACTORS
330
435
102
}
330
435
100
AcDbXrecord
280
     1
 70
     4
 70
     0
 70
     0
 40
1.0
  2
Revision_Index_1
  1
Embedded Object
 10
264.6
 20
104.2741925130957
 30
0.0
 40
5.0
 41
11.14714749717635
 46
0.0
 71
     4
 72
     5
  1
A
  7
Text Style20
 73
     1
 44
1.0
  0
XRECORD
  5
436
102
{ACAD_REACTORS
330
435
102
}
330
435
100
AcDbXrecord
280
     1
102
ACAD_MATT_HEIGHT
140
5.0
  0
XRECORD
  5
43A
102
{ACAD_REACTORS
330
438
102
}
330
438
100
AcDbXrecord
280
     1
 70
     4
 70
     0
 70
     0
 40
1.0
  2
Sheet_Size
  1
Embedded Object
 10
205.6
 20
104.2741925130957
 30
0.0
 40
5.0
 41
44.17438307011515
 46
0.0
 71
     4
 72
     5
  1
A4
  7
Text Style20
 73
     1
 44
1.0
  0
XRECORD
  5
439
102
{ACAD_REACTORS
330
438
102
}
330
438
100
AcDbXrecord
280
     1
102
ACAD_MATT_HEIGHT
140
5.0
  0
XRECORD
  5
43D
102
{ACAD_REACTORS
330
43B
102
}
330
43B
100
AcDbXrecord
280
     1
 70
     4
 70
     0
 70
     0
 40
1.0
  2
Drawn_By
  1
Embedded Object
 10
90.6
 20
141.0241925130958
 30
0.0
 40
2.000000029802322
 41
14.31996733840145
 46
0.0
 71
     4
 72
     5
  1
Tafel
  7
Text Style40
 73
     1
 44
1.0
  0
XRECORD
  5
43C
102
{ACAD_REACTORS
330
43B
102
}
330
43B
100
AcDbXrecord
280
     1
102
ACAD_MATT_HEIGHT
140
2.000000029802322
  0
XRECORD
  5
440
102
{ACAD_REACTORS
330
43E
102
}
330
43E
100
AcDbXrecord
280
     1
 70
     4
 70
     0
 70
     0
 40
1.0
  2
Modified_By
  1
Embedded Object
 10
90.6
 20
133.5241925130958
 30
0.0
 40
2.000000029802322
 41
13.91658797675633
 46
0.0
 71
     4
 72
     5
  1

  7
Text Style40
 73
     1
 44
1.0
  0
XRECORD
  5
43F
102
{ACAD_REACTORS
330
43E
102
}
330
43E
100
AcDbXrecord
280
     1
102
ACAD_MATT_HEIGHT
140
2.000000029802322
  0
XRECORD
  5
443
102
{ACAD_REACTORS
330
441
102
}
330
441
100
AcDbXrecord
280
     1
 70
     4
 70
     0
 70
     0
 40
1.0
  2
Drawn_Date
  1
Embedded Object
 10
135.6
 20
141.0241925130958
 30
0.0
 40
2.000000029802322
 41
20.97572680554579
 46
0.0
 71
     4
 72
     5
  1
25.11.2009
  7
Text Style40
 73
     1
 44
1.0
  0
XRECORD
  5
442
102
{ACAD_REACTORS
330
441
102
}
330
441
100
AcDbXrecord
280
     1
102
ACAD_MATT_HEIGHT
140
2.000000029802322
  0
XRECORD
  5
446
102
{ACAD_REACTORS
330
444
102
}
330
444
100
AcDbXrecord
280
     1
 70
     4
 70
     0
 70
     0
 40
1.0
  2
Modified_Date
  1
Embedded Object
 10
135.6
 20
133.5241925130958
 30
0.0
 40
2.000000029802322
 41
20.16896808225555
 46
0.0
 71
     4
 72
     5
  1

  7
Text Style40
 73
     1
 44
1.0
  0
XRECORD
  5
445
102
{ACAD_REACTORS
330
444
102
}
330
444
100
AcDbXrecord
280
     1
102
ACAD_MATT_HEIGHT
140
2.000000029802322
  0
XRECORD
  5
449
102
{ACAD_REACTORS
330
447
102
}
330
447
100
AcDbXrecord
280
     1
 70
     4
 70
     0
 70
     0
 40
1.0
  2
Revision_Titel_1
  1
Embedded Object
 10
155.6
 20
141.0241925130958
 30
0.0
 40
2.000000029802322
 41
52.85729261131551
 46
0.0
 71
     4
 72
     5
  1

  7
Text Style40
 73
     1
 44
1.0
  0
XRECORD
  5
448
102
{ACAD_REACTORS
330
447
102
}
330
447
100
AcDbXrecord
280
     1
102
ACAD_MATT_HEIGHT
140
2.000000029802322
  0
XRECORD
  5
44C
102
{ACAD_REACTORS
330
44A
102
}
330
44A
100
AcDbXrecord
280
     1
 70
     4
 70
     0
 70
     0
 40
1.0
  2
Sheet_number
  1
Embedded Object
 10
278.35
 20
104.2741925130957
 30
0.0
 40
5.0
 41
0.0
 46
0.0
 71
     5
 72
     5
  1
\W0.9000;5 
  7
Text__5.0mm
 73
     1
 44
1.0
  0
XRECORD
  5
44B
102
{ACAD_REACTORS
330
44A
102
}
330
44A
100
AcDbXrecord
280
     1
102
ACAD_MATT_HEIGHT
140
5.0
  0
XRECORD
  5
44F
102
{ACAD_REACTORS
330
44D
102
}
330
44D
100
AcDbXrecord
280
     1
 70
     4
 70
     0
 70
     0
 40
1.0
  2
Number_of_sheets
  1
Embedded Object
 10
285.85
 20
104.2741925130957
 30
0.0
 40
5.0
 41
0.0
 46
0.0
 71
     5
 72
     5
  1
\W0.9000;5 
  7
Text__5.0mm
 73
     1
 44
1.0
  0
XRECORD
  5
44E
102
{ACAD_REACTORS
330
44D
102
}
330
44D
100
AcDbXrecord
280
     1
102
ACAD_MATT_HEIGHT
140
5.0
  0
XRECORD
  5
452
102
{ACAD_REACTORS
330
450
102
}
330
450
100
AcDbXrecord
280
     1
 70
     4
 70
     0
 70
     0
 40
1.0
  2
FUN
  1
Embedded Object
 10
205.6
 20
133.5241925130958
 30
0.0
 40
2.5
 41
35.7212232739224
 46
0.0
 71
     4
 72
     5
  1

  7
Text Style38
 73
     1
 44
1.0
  0
XRECORD
  5
451
102
{ACAD_REACTORS
330
450
102
}
330
450
100
AcDbXrecord
280
     1
102
ACAD_MATT_HEIGHT
140
2.5
  0
XRECORD
  5
455
102
{ACAD_REACTORS
330
453
102
}
330
453
100
AcDbXrecord
280
     1
 70
     4
 70
     0
 70
     0
 40
1.0
  2
EAN
  1
Embedded Object
 10
248.1
 20
133.5241925130958
 30
0.0
 40
2.5
 41
35.7212232739224
 46
0.0
 71
     4
 72
     5
  1
7612982000638
  7
Text Style38
 73
     1
 44
1.0
  0
XRECORD
  5
454
102
{ACAD_REACTORS
330
453
102
}
330
453
100
AcDbXrecord
280
     1
102
ACAD_MATT_HEIGHT
140
2.5
  0
XRECORD
  5
458
102
{ACAD_REACTORS
330
456
102
}
330
456
100
AcDbXrecord
280
     1
 70
     4
 70
     0
 70
     0
 40
1.0
  2
Departement
  1
Embedded Object
 10
110.6
 20
133.5241925130958
 30
0.0
 40
2.000000029802322
 41
17.55611008168829
 46
0.0
 71
     4
 72
     5
  1
FAR-Marketing
  7
Text Style40
 73
     1
 44
1.0
  0
XRECORD
  5
457
102
{ACAD_REACTORS
330
456
102
}
330
456
100
AcDbXrecord
280
     1
102
ACAD_MATT_HEIGHT
140
2.000000029802322
  0
XRECORD
  5
45B
102
{ACAD_REACTORS
330
459
102
}
330
459
100
AcDbXrecord
280
     1
 70
     4
 70
     0
 70
     0
 40
1.0
  2
Departement
  1
Embedded Object
 10
110.6
 20
141.0241925130958
 30
0.0
 40
2.000000029802322
 41
18.45803981954006
 46
0.0
 71
     4
 72
     5
  1
FAR-Marketing
  7
Text Style40
 73
     1
 44
1.0
  0
XRECORD
  5
45A
102
{ACAD_REACTORS
330
459
102
}
330
459
100
AcDbXrecord
280
     1
102
ACAD_MATT_HEIGHT
140
2.000000029802322
  0
XRECORD
  5
45E
102
{ACAD_REACTORS
330
45C
102
}
330
45C
100
AcDbXrecord
280
     1
 70
     2
 70
     0
 70
     0
 40
1.0
  2
Title
  1
Embedded Object
 10
244.0
 20
61.50000000000009
 30
0.0
 40
10.0
 41
178.2872440527777
 46
0.0
 71
     4
 72
     5
  1
Urinaldruckspüler DN15
  7
Text Style20
 73
     1
 44
1.0
  0
XRECORD
  5
45D
102
{ACAD_REACTORS
330
45C
102
}
330
45C
100
AcDbXrecord
280
     1
102
ACAD_MATT_HEIGHT
140
10.0
  0
XRECORD
  5
461
102
{ACAD_REACTORS
330
45F
102
}
330
45F
100
AcDbXrecord
280
     1
 70
     2
 70
     0
 70
     0
 40
1.0
  2
Auxiliary_Remark1
  1
Embedded Object
 10
244.0000000000001
 20
48.50000000000008
 30
0.0
 40
6.99999988079071
 41
177.7177276375698
 46
0.0
 71
     4
 72
     5
  1
AQRM460
  7
Text Style9
 73
     1
 44
1.0
  0
XRECORD
  5
460
102
{ACAD_REACTORS
330
45F
102
}
330
45F
100
AcDbXrecord
280
     1
102
ACAD_MATT_HEIGHT
140
6.99999988079071
  0
XRECORD
  5
464
102
{ACAD_REACTORS
330
462
102
}
330
462
100
AcDbXrecord
280
     1
 70
     2
 70
     0
 70
     0
 40
1.0
  2
Auxiliary_Remark2
  1
Embedded Object
 10
244.0
 20
35.50000000000011
 30
0.0
 40
6.99999988079071
 41
177.0112004132194
 46
0.0
 71
     4
 72
     5
  1
Marketingzeichnung
  7
Text Style9
 73
     1
 44
1.0
  0
XRECORD
  5
463
102
{ACAD_REACTORS
330
462
102
}
330
462
100
AcDbXrecord
280
     1
102
ACAD_MATT_HEIGHT
140
6.99999988079071
  0
XRECORD
  5
467
102
{ACAD_REACTORS
330
465
102
}
330
465
100
AcDbXrecord
280
     1
 70
     2
 70
     0
 70
     0
 40
1.0
  2
Part_number
  1
Embedded Object
 10
327.0
 20
91.50000000000009
 30
0.0
 40
5.0
 41
71.44244654784479
 46
0.0
 71
     4
 72
     5
  1
25210222
  7
Text Style38
 73
     1
 44
1.0
  0
XRECORD
  5
466
102
{ACAD_REACTORS
330
465
102
}
330
465
100
AcDbXrecord
280
     1
102
ACAD_MATT_HEIGHT
140
5.0
  0
XRECORD
  5
46A
102
{ACAD_REACTORS
330
468
102
}
330
468
100
AcDbXrecord
280
     1
 70
     2
 70
     0
 70
     0
 40
1.0
  2
Document_Number
  1
Embedded Object
 10
266.9999999999999
 20
17.99999999999997
 30
0.0
 40
10.0
 41
90.52120134132827
 46
0.0
 71
     4
 72
     5
  1
0222-215254
  7
Text Style20
 73
     1
 44
1.0
  0
XRECORD
  5
469
102
{ACAD_REACTORS
330
468
102
}
330
468
100
AcDbXrecord
280
     1
102
ACAD_MATT_HEIGHT
140
10.0
  0
XRECORD
  5
46D
102
{ACAD_REACTORS
330
46B
102
}
330
46B
100
AcDbXrecord
280
     1
 70
     2
 70
     0
 70
     0
 40
1.0
  2
Revision_Memo_1
  1
Embedded Object
 10
142.0
 20
85.50000000000004
 30
0.0
 40
4.000000059604644
 41
93.50034542020535
 46
0.0
 71
     1
 72
     5
  1

  7
Text Style40
 73
     1
 44
1.0
  0
XRECORD
  5
46C
102
{ACAD_REACTORS
330
46B
102
}
330
46B
100
AcDbXrecord
280
     1
102
ACAD_MATT_HEIGHT
140
4.000000059604644
  0
XRECORD
  5
470
102
{ACAD_REACTORS
330
46E
102
}
330
46E
100
AcDbXrecord
280
     1
 70
     2
 70
     0
 70
     0
 40
1.0
  2
Revision_Index_1
  1
Embedded Object
 10
360.0
 20
17.99999999999986
 30
0.0
 40
10.0
 41
22.2942949943527
 46
0.0
 71
     4
 72
     5
  1
A
  7
Text Style20
 73
     1
 44
1.0
  0
XRECORD
  5
46F
102
{ACAD_REACTORS
330
46E
102
}
330
46E
100
AcDbXrecord
280
     1
102
ACAD_MATT_HEIGHT
140
10.0
  0
XRECORD
  5
473
102
{ACAD_REACTORS
330
471
102
}
330
471
100
AcDbXrecord
280
     1
 70
     2
 70
     0
 70
     0
 40
1.0
  2
Sheet_Size
  1
Embedded Object
 10
242.0
 20
17.99999999999997
 30
0.0
 40
10.0
 41
88.34876614023031
 46
0.0
 71
     4
 72
     5
  1
A4
  7
Text Style20
 73
     1
 44
1.0
  0
XRECORD
  5
472
102
{ACAD_REACTORS
330
471
102
}
330
471
100
AcDbXrecord
280
     1
102
ACAD_MATT_HEIGHT
140
10.0
  0
XRECORD
  5
476
102
{ACAD_REACTORS
330
474
102
}
330
474
100
AcDbXrecord
280
     1
 70
     2
 70
     0
 70
     0
 40
1.0
  2
Drawn_By
  1
Embedded Object
 10
11.99999999999995
 20
91.50000000000009
 30
0.0
 40
4.000000059604644
 41
28.63993467680291
 46
0.0
 71
     4
 72
     5
  1
Tafel
  7
Text Style40
 73
     1
 44
1.0
  0
XRECORD
  5
475
102
{ACAD_REACTORS
330
474
102
}
330
474
100
AcDbXrecord
280
     1
102
ACAD_MATT_HEIGHT
140
4.000000059604644
  0
XRECORD
  5
479
102
{ACAD_REACTORS
330
477
102
}
330
477
100
AcDbXrecord
280
     1
 70
     2
 70
     0
 70
     0
 40
1.0
  2
Modified_By
  1
Embedded Object
 10
11.99999999999995
 20
76.50000000000012
 30
0.0
 40
4.000000059604644
 41
27.83317595351267
 46
0.0
 71
     4
 72
     5
  1

  7
Text Style40
 73
     1
 44
1.0
  0
XRECORD
  5
478
102
{ACAD_REACTORS
330
477
102
}
330
477
100
AcDbXrecord
280
     1
102
ACAD_MATT_HEIGHT
140
4.000000059604644
  0
XRECORD
  5
47C
102
{ACAD_REACTORS
330
47A
102
}
330
47A
100
AcDbXrecord
280
     1
 70
     2
 70
     0
 70
     0
 40
1.0
  2
Drawn_Date
  1
Embedded Object
 10
102.0
 20
91.50000000000009
 30
0.0
 40
4.000000059604644
 41
41.95145361109158
 46
0.0
 71
     4
 72
     5
  1
25.11.2009
  7
Text Style40
 73
     1
 44
1.0
  0
XRECORD
  5
47B
102
{ACAD_REACTORS
330
47A
102
}
330
47A
100
AcDbXrecord
280
     1
102
ACAD_MATT_HEIGHT
140
4.000000059604644
  0
XRECORD
  5
47F
102
{ACAD_REACTORS
330
47D
102
}
330
47D
100
AcDbXrecord
280
     1
 70
     2
 70
     0
 70
     0
 40
1.0
  2
Modified_Date
  1
Embedded Object
 10
102.0
 20
76.50000000000012
 30
0.0
 40
4.000000059604644
 41
40.33793616451109
 46
0.0
 71
     4
 72
     5
  1

  7
Text Style40
 73
     1
 44
1.0
  0
XRECORD
  5
47E
102
{ACAD_REACTORS
330
47D
102
}
330
47D
100
AcDbXrecord
280
     1
102
ACAD_MATT_HEIGHT
140
4.000000059604644
  0
XRECORD
  5
482
102
{ACAD_REACTORS
330
480
102
}
330
480
100
AcDbXrecord
280
     1
 70
     2
 70
     0
 70
     0
 40
1.0
  2
Revision_Titel_1
  1
Embedded Object
 10
142.0
 20
91.50000000000003
 30
0.0
 40
4.000000059604644
 41
105.714585222631
 46
0.0
 71
     4
 72
     5
  1

  7
Text Style40
 73
     1
 44
1.0
  0
XRECORD
  5
481
102
{ACAD_REACTORS
330
480
102
}
330
480
100
AcDbXrecord
280
     1
102
ACAD_MATT_HEIGHT
140
4.000000059604644
  0
XRECORD
  5
485
102
{ACAD_REACTORS
330
483
102
}
330
483
100
AcDbXrecord
280
     1
 70
     2
 70
     0
 70
     0
 40
1.0
  2
Sheet_number
  1
Embedded Object
 10
387.5
 20
17.99999999999986
 30
0.0
 40
10.0
 41
0.0
 46
0.0
 71
     5
 72
     5
  1
\W0.9000;5 
  7
Text__5.0mm
 73
     1
 44
1.0
  0
XRECORD
  5
484
102
{ACAD_REACTORS
330
483
102
}
330
483
100
AcDbXrecord
280
     1
102
ACAD_MATT_HEIGHT
140
10.0
  0
XRECORD
  5
488
102
{ACAD_REACTORS
330
486
102
}
330
486
100
AcDbXrecord
280
     1
 70
     2
 70
     0
 70
     0
 40
1.0
  2
Number_of_sheets
  1
Embedded Object
 10
402.5
 20
17.99999999999986
 30
0.0
 40
10.0
 41
0.0
 46
0.0
 71
     5
 72
     5
  1
\W0.9000;5 
  7
Text__5.0mm
 73
     1
 44
1.0
  0
XRECORD
  5
487
102
{ACAD_REACTORS
330
486
102
}
330
486
100
AcDbXrecord
280
     1
102
ACAD_MATT_HEIGHT
140
10.0
  0
XRECORD
  5
48B
102
{ACAD_REACTORS
330
489
102
}
330
489
100
AcDbXrecord
280
     1
 70
     2
 70
     0
 70
     0
 40
1.0
  2
FUN
  1
Embedded Object
 10
242.0
 20
76.50000000000009
 30
0.0
 40
5.0
 41
71.44244654784479
 46
0.0
 71
     4
 72
     5
  1

  7
Text Style38
 73
     1
 44
1.0
  0
XRECORD
  5
48A
102
{ACAD_REACTORS
330
489
102
}
330
489
100
AcDbXrecord
280
     1
102
ACAD_MATT_HEIGHT
140
5.0
  0
XRECORD
  5
48E
102
{ACAD_REACTORS
330
48C
102
}
330
48C
100
AcDbXrecord
280
     1
 70
     2
 70
     0
 70
     0
 40
1.0
  2
EAN
  1
Embedded Object
 10
327.0
 20
76.50000000000009
 30
0.0
 40
5.0
 41
71.44244654784479
 46
0.0
 71
     4
 72
     5
  1
7612982000638
  7
Text Style38
 73
     1
 44
1.0
  0
XRECORD
  5
48D
102
{ACAD_REACTORS
330
48C
102
}
330
48C
100
AcDbXrecord
280
     1
102
ACAD_MATT_HEIGHT
140
5.0
  0
XRECORD
  5
491
102
{ACAD_REACTORS
330
48F
102
}
330
48F
100
AcDbXrecord
280
     1
 70
     2
 70
     0
 70
     0
 40
1.0
  2
Departement
  1
Embedded Object
 10
51.99999999999995
 20
76.50000000000012
 30
0.0
 40
4.000000059604644
 41
35.11222016337658
 46
0.0
 71
     4
 72
     5
  1
FAR-Marketing
  7
Text Style40
 73
     1
 44
1.0
  0
XRECORD
  5
490
102
{ACAD_REACTORS
330
48F
102
}
330
48F
100
AcDbXrecord
280
     1
102
ACAD_MATT_HEIGHT
140
4.000000059604644
  0
XRECORD
  5
494
102
{ACAD_REACTORS
330
492
102
}
330
492
100
AcDbXrecord
280
     1
 70
     2
 70
     0
 70
     0
 40
1.0
  2
Departement
  1
Embedded Object
 10
51.99999999999995
 20
91.50000000000009
 30
0.0
 40
4.000000059604644
 41
36.91607963908012
 46
0.0
 71
     4
 72
     5
  1
FAR-Marketing
  7
Text Style40
 73
     1
 44
1.0
  0
XRECORD
  5
493
102
{ACAD_REACTORS
330
492
102
}
330
492
100
AcDbXrecord
280
     1
102
ACAD_MATT_HEIGHT
140
4.000000059604644
  0
LAYOUT
  5
76
102
{ACAD_REACTORS
330
6D
102
}
330
6D
100
AcDbPlotSettings
  1

  2

  4

  6

 40
0.0
 41
0.0
 42
0.0
 43
0.0
 44
0.0
 45
0.0
 46
0.0
 47
0.0
 48
0.0
 49
0.0
140
0.0
141
0.0
142
1.0
143
1.0
 70
   688
 72
     0
 73
     0
 74
     5
  7

 75
    16
147
1.0
 76
     0
 77
     2
 78
   300
148
0.0
149
0.0
100
AcDbLayout
  1
Layout1
 70
     1
 71
     1
 10
0.0
 20
0.0
 11
12.0
 21
9.0
 12
0.0
 22
0.0
 32
0.0
 14
0.0
 24
0.0
 34
0.0
 15
0.0
 25
0.0
 35
0.0
146
0.0
 13
0.0
 23
0.0
 33
0.0
 16
1.0
 26
0.0
 36
0.0
 17
0.0
 27
1.0
 37
0.0
 76
     0
330
73
  0
LAYOUT
  5
7E
102
{ACAD_REACTORS
330
6D
102
}
330
6D
100
AcDbPlotSettings
  1

  2

  4

  6

 40
0.0
 41
0.0
 42
0.0
 43
0.0
 44
0.0
 45
0.0
 46
0.0
 47
0.0
 48
0.0
 49
0.0
140
0.0
141
0.0
142
1.0
143
1.0
 70
   688
 72
     0
 73
     0
 74
     5
  7

 75
    16
147
1.0
 76
     0
 77
     2
 78
   300
148
0.0
149
0.0
100
AcDbLayout
  1
Layout2
 70
     1
 71
     2
 10
0.0
 20
0.0
 11
12.0
 21
9.0
 12
0.0
 22
0.0
 32
0.0
 14
0.0
 24
0.0
 34
0.0
 15
0.0
 25
0.0
 35
0.0
146
0.0
 13
0.0
 23
0.0
 33
0.0
 16
1.0
 26
0.0
 36
0.0
 17
0.0
 27
1.0
 37
0.0
 76
     0
330
7B
  0
LAYOUT
  5
7A
102
{ACAD_REACTORS
330
6D
102
}
330
6D
100
AcDbPlotSettings
  1

  2

  4

  6

 40
0.0
 41
0.0
 42
0.0
 43
0.0
 44
0.0
 45
0.0
 46
0.0
 47
0.0
 48
0.0
 49
0.0
140
0.0
141
0.0
142
1.0
143
1.0
 70
  1712
 72
     0
 73
     0
 74
     0
  7

 75
     0
147
1.0
 76
     0
 77
     2
 78
   300
148
0.0
149
0.0
100
AcDbLayout
  1
Model
 70
     1
 71
     0
 10
0.0
 20
0.0
 11
12.0
 21
9.0
 12
0.0
 22
0.0
 32
0.0
 14
0.0
 24
0.0
 34
0.0
 15
0.0
 25
0.0
 35
0.0
146
0.0
 13
0.0
 23
0.0
 33
0.0
 16
1.0
 26
0.0
 36
0.0
 17
0.0
 27
1.0
 37
0.0
 76
     0
330
77
  0
MATERIAL
  5
19
102
{ACAD_XDICTIONARY
360
1A
102
}
102
{ACAD_REACTORS
330
10
102
}
330
10
100
AcDbMaterial
  1
ByBlock
 72
     0
 43
0.0208333333333333
 43
0.0
 43
0.0
 43
0.0
 43
0.0
 43
0.0208333333333333
 43
0.0
 43
0.0
 43
0.0
 43
0.0
 43
1.0
 43
0.0
 43
0.0
 43
0.0
 43
0.0
 43
1.0
 77
     0
 47
0.0208333333333333
 47
0.0
 47
0.0
 47
0.0
 47
0.0
 47
0.0208333333333333
 47
0.0
 47
0.0
 47
0.0
 47
0.0
 47
1.0
 47
0.0
 47
0.0
 47
0.0
 47
0.0
 47
1.0
171
     0
 49
0.0208333333333333
 49
0.0
 49
0.0
 49
0.0
 49
0.0
 49
0.0208333333333333
 49
0.0
 49
0.0
 49
0.0
 49
0.0
 49
1.0
 49
0.0
 49
0.0
 49
0.0
 49
0.0
 49
1.0
175
     0
142
0.0208333333333333
142
0.0
142
0.0
142
0.0
142
0.0
142
0.0208333333333333
142
0.0
142
0.0
142
0.0
142
0.0
142
1.0
142
0.0
142
0.0
142
0.0
142
0.0
142
1.0
179
     0
144
0.0208333333333333
144
0.0
144
0.0
144
0.0
144
0.0
144
0.0208333333333333
144
0.0
144
0.0
144
0.0
144
0.0
144
1.0
144
0.0
144
0.0
144
0.0
144
0.0
144
1.0
147
0.0208333333333333
147
0.0
147
0.0
147
0.0
147
0.0
147
0.0208333333333333
147
0.0
147
0.0
147
0.0
147
0.0
147
1.0
147
0.0
147
0.0
147
0.0
147
0.0
147
1.0
  0
MATERIAL
  5
11
102
{ACAD_XDICTIONARY
360
12
102
}
102
{ACAD_REACTORS
330
10
102
}
330
10
100
AcDbMaterial
  1
ByLayer
 72
     0
 43
0.0208333333333333
 43
0.0
 43
0.0
 43
0.0
 43
0.0
 43
0.0208333333333333
 43
0.0
 43
0.0
 43
0.0
 43
0.0
 43
1.0
 43
0.0
 43
0.0
 43
0.0
 43
0.0
 43
1.0
 77
     0
 47
0.0208333333333333
 47
0.0
 47
0.0
 47
0.0
 47
0.0
 47
0.0208333333333333
 47
0.0
 47
0.0
 47
0.0
 47
0.0
 47
1.0
 47
0.0
 47
0.0
 47
0.0
 47
0.0
 47
1.0
171
     0
 49
0.0208333333333333
 49
0.0
 49
0.0
 49
0.0
 49
0.0
 49
0.0208333333333333
 49
0.0
 49
0.0
 49
0.0
 49
0.0
 49
1.0
 49
0.0
 49
0.0
 49
0.0
 49
0.0
 49
1.0
175
     0
142
0.0208333333333333
142
0.0
142
0.0
142
0.0
142
0.0
142
0.0208333333333333
142
0.0
142
0.0
142
0.0
142
0.0
142
1.0
142
0.0
142
0.0
142
0.0
142
0.0
142
1.0
179
     0
144
0.0208333333333333
144
0.0
144
0.0
144
0.0
144
0.0
144
0.0208333333333333
144
0.0
144
0.0
144
0.0
144
0.0
144
1.0
144
0.0
144
0.0
144
0.0
144
0.0
144
1.0
147
0.0208333333333333
147
0.0
147
0.0
147
0.0
147
0.0
147
0.0208333333333333
147
0.0
147
0.0
147
0.0
147
0.0
147
1.0
147
0.0
147
0.0
147
0.0
147
0.0
147
1.0
  0
MATERIAL
  5
21
102
{ACAD_XDICTIONARY
360
22
102
}
102
{ACAD_REACTORS
330
10
102
}
330
10
100
AcDbMaterial
  1
Global
 72
     0
 43
0.0208333333333333
 43
0.0
 43
0.0
 43
0.0
 43
0.0
 43
0.0208333333333333
 43
0.0
 43
0.0
 43
0.0
 43
0.0
 43
1.0
 43
0.0
 43
0.0
 43
0.0
 43
0.0
 43
1.0
 77
     0
 47
0.0208333333333333
 47
0.0
 47
0.0
 47
0.0
 47
0.0
 47
0.0208333333333333
 47
0.0
 47
0.0
 47
0.0
 47
0.0
 47
1.0
 47
0.0
 47
0.0
 47
0.0
 47
0.0
 47
1.0
171
     0
 49
0.0208333333333333
 49
0.0
 49
0.0
 49
0.0
 49
0.0
 49
0.0208333333333333
 49
0.0
 49
0.0
 49
0.0
 49
0.0
 49
1.0
 49
0.0
 49
0.0
 49
0.0
 49
0.0
 49
1.0
175
     0
142
0.0208333333333333
142
0.0
142
0.0
142
0.0
142
0.0
142
0.0208333333333333
142
0.0
142
0.0
142
0.0
142
0.0
142
1.0
142
0.0
142
0.0
142
0.0
142
0.0
142
1.0
179
     0
144
0.0208333333333333
144
0.0
144
0.0
144
0.0
144
0.0
144
0.0208333333333333
144
0.0
144
0.0
144
0.0
144
0.0
144
1.0
144
0.0
144
0.0
144
0.0
144
0.0
144
1.0
147
0.0208333333333333
147
0.0
147
0.0
147
0.0
147
0.0
147
0.0208333333333333
147
0.0
147
0.0
147
0.0
147
0.0
147
1.0
147
0.0
147
0.0
147
0.0
147
0.0
147
1.0
  0
MLEADERSTYLE
  5
72
102
{ACAD_REACTORS
330
71
102
}
330
71
100
AcDbMLeaderStyle
170
     2
171
     1
172
     0
 90
        2
 40
0.0
 41
0.0
173
     1
 91
-1056964608
340
66
 92
       -2
290
     1
 42
0.09
291
     1
 43
0.36
  3
Standard
 44
0.18
300

342
60
174
     1
178
     6
175
     1
176
     0
 93
-1056964608
 45
0.18
292
     0
297
     0
 46
0.18
 94
-1056964608
 47
1.0
 49
1.0
140
1.0
293
     1
141
0.0
294
     1
177
     0
142
1.0
295
     0
296
     0
143
0.125
1001
ACAD_MLEADERVER
1070
     2
  0
MLINESTYLE
  5
6B
102
{ACAD_REACTORS
330
6A
102
}
330
6A
100
AcDbMlineStyle
  2
STANDARD
 70
     0
  3

 62
   256
 51
90.0
 52
90.0
 71
     2
 49
0.5
 62
   256
  6
BYLAYER
 49
-0.5
 62
   256
  6
BYLAYER
  0
ACDBPLACEHOLDER
  5
F
102
{ACAD_REACTORS
330
E
102
}
330
E
  0
SCALE
  5
3E
102
{ACAD_REACTORS
330
3D
102
}
330
3D
100
AcDbScale
 70
     0
300
1:1
140
1.0
141
1.0
290
     1
  0
SCALE
  5
3F
102
{ACAD_REACTORS
330
3D
102
}
330
3D
100
AcDbScale
 70
     0
300
1:2
140
1.0
141
2.0
290
     0
  0
SCALE
  5
40
102
{ACAD_REACTORS
330
3D
102
}
330
3D
100
AcDbScale
 70
     0
300
1:4
140
1.0
141
4.0
290
     0
  0
SCALE
  5
41
102
{ACAD_REACTORS
330
3D
102
}
330
3D
100
AcDbScale
 70
     0
300
1:5
140
1.0
141
5.0
290
     0
  0
SCALE
  5
42
102
{ACAD_REACTORS
330
3D
102
}
330
3D
100
AcDbScale
 70
     0
300
1:8
140
1.0
141
8.0
290
     0
  0
SCALE
  5
43
102
{ACAD_REACTORS
330
3D
102
}
330
3D
100
AcDbScale
 70
     0
300
1:10
140
1.0
141
10.0
290
     0
  0
SCALE
  5
44
102
{ACAD_REACTORS
330
3D
102
}
330
3D
100
AcDbScale
 70
     0
300
1:16
140
1.0
141
16.0
290
     0
  0
SCALE
  5
45
102
{ACAD_REACTORS
330
3D
102
}
330
3D
100
AcDbScale
 70
     0
300
1:20
140
1.0
141
20.0
290
     0
  0
SCALE
  5
46
102
{ACAD_REACTORS
330
3D
102
}
330
3D
100
AcDbScale
 70
     0
300
1:30
140
1.0
141
30.0
290
     0
  0
SCALE
  5
47
102
{ACAD_REACTORS
330
3D
102
}
330
3D
100
AcDbScale
 70
     0
300
1:40
140
1.0
141
40.0
290
     0
  0
SCALE
  5
48
102
{ACAD_REACTORS
330
3D
102
}
330
3D
100
AcDbScale
 70
     0
300
1:50
140
1.0
141
50.0
290
     0
  0
SCALE
  5
49
102
{ACAD_REACTORS
330
3D
102
}
330
3D
100
AcDbScale
 70
     0
300
1:100
140
1.0
141
100.0
290
     0
  0
SCALE
  5
4A
102
{ACAD_REACTORS
330
3D
102
}
330
3D
100
AcDbScale
 70
     0
300
2:1
140
2.0
141
1.0
290
     0
  0
SCALE
  5
4B
102
{ACAD_REACTORS
330
3D
102
}
330
3D
100
AcDbScale
 70
     0
300
4:1
140
4.0
141
1.0
290
     0
  0
SCALE
  5
4C
102
{ACAD_REACTORS
330
3D
102
}
330
3D
100
AcDbScale
 70
     0
300
8:1
140
8.0
141
1.0
290
     0
  0
SCALE
  5
4D
102
{ACAD_REACTORS
330
3D
102
}
330
3D
100
AcDbScale
 70
     0
300
10:1
140
10.0
141
1.0
290
     0
  0
SCALE
  5
4E
102
{ACAD_REACTORS
330
3D
102
}
330
3D
100
AcDbScale
 70
     0
300
100:1
140
100.0
141
1.0
290
     0
  0
SCALE
  5
4F
102
{ACAD_REACTORS
330
3D
102
}
330
3D
100
AcDbScale
 70
     0
300
1/128" = 1'-0"
140
0.0078125
141
12.0
290
     0
  0
SCALE
  5
50
102
{ACAD_REACTORS
330
3D
102
}
330
3D
100
AcDbScale
 70
     0
300
1/64" = 1'-0"
140
0.015625
141
12.0
290
     0
  0
SCALE
  5
51
102
{ACAD_REACTORS
330
3D
102
}
330
3D
100
AcDbScale
 70
     0
300
1/32" = 1'-0"
140
0.03125
141
12.0
290
     0
  0
SCALE
  5
52
102
{ACAD_REACTORS
330
3D
102
}
330
3D
100
AcDbScale
 70
     0
300
1/16" = 1'-0"
140
0.0625
141
12.0
290
     0
  0
SCALE
  5
53
102
{ACAD_REACTORS
330
3D
102
}
330
3D
100
AcDbScale
 70
     0
300
3/32" = 1'-0"
140
0.09375
141
12.0
290
     0
  0
SCALE
  5
54
102
{ACAD_REACTORS
330
3D
102
}
330
3D
100
AcDbScale
 70
     0
300
1/8" = 1'-0"
140
0.125
141
12.0
290
     0
  0
SCALE
  5
55
102
{ACAD_REACTORS
330
3D
102
}
330
3D
100
AcDbScale
 70
     0
300
3/16" = 1'-0"
140
0.1875
141
12.0
290
     0
  0
SCALE
  5
56
102
{ACAD_REACTORS
330
3D
102
}
330
3D
100
AcDbScale
 70
     0
300
1/4" = 1'-0"
140
0.25
141
12.0
290
     0
  0
SCALE
  5
57
102
{ACAD_REACTORS
330
3D
102
}
330
3D
100
AcDbScale
 70
     0
300
3/8" = 1'-0"
140
0.375
141
12.0
290
     0
  0
SCALE
  5
58
102
{ACAD_REACTORS
330
3D
102
}
330
3D
100
AcDbScale
 70
     0
300
1/2" = 1'-0"
140
0.5
141
12.0
290
     0
  0
SCALE
  5
59
102
{ACAD_REACTORS
330
3D
102
}
330
3D
100
AcDbScale
 70
     0
300
3/4" = 1'-0"
140
0.75
141
12.0
290
     0
  0
SCALE
  5
5A
102
{ACAD_REACTORS
330
3D
102
}
330
3D
100
AcDbScale
 70
     0
300
1" = 1'-0"
140
1.0
141
12.0
290
     0
  0
SCALE
  5
5B
102
{ACAD_REACTORS
330
3D
102
}
330
3D
100
AcDbScale
 70
     0
300
1-1/2" = 1'-0"
140
1.5
141
12.0
290
     0
  0
SCALE
  5
5C
102
{ACAD_REACTORS
330
3D
102
}
330
3D
100
AcDbScale
 70
     0
300
3" = 1'-0"
140
3.0
141
12.0
290
     0
  0
SCALE
  5
5D
102
{ACAD_REACTORS
330
3D
102
}
330
3D
100
AcDbScale
 70
     0
300
6" = 1'-0"
140
6.0
141
12.0
290
     0
  0
SCALE
  5
5E
102
{ACAD_REACTORS
330
3D
102
}
330
3D
100
AcDbScale
 70
     0
300
1'-0" = 1'-0"
140
12.0
141
12.0
290
     0
  0
TABLESTYLE
  5
70
102
{ACAD_XDICTIONARY
360
41D
102
}
102
{ACAD_REACTORS
330
6F
102
}
330
6F
100
AcDbTableStyle
  3
Standard
 70
     0
 71
     0
 40
0.06
 41
0.06
280
     0
281
     0
  7
Standard
140
0.18
170
     2
 62
     0
 63
     7
283
     0
274
    -2
284
     1
 64
     0
275
    -2
285
     1
 65
     0
276
    -2
286
     1
 66
     0
277
    -2
287
     1
 67
     0
278
    -2
288
     1
 68
     0
279
    -2
289
     1
 69
     0
  7
Standard
140
0.25
170
     5
 62
     0
 63
     7
283
     0
274
    -2
284
     1
 64
     0
275
    -2
285
     1
 65
     0
276
    -2
286
     1
 66
     0
277
    -2
287
     1
 67
     0
278
    -2
288
     1
 68
     0
279
    -2
289
     1
 69
     0
  7
Standard
140
0.18
170
     5
 62
     0
 63
     7
283
     0
274
    -2
284
     1
 64
     0
275
    -2
285
     1
 65
     0
276
    -2
286
     1
 66
     0
277
    -2
287
     1
 67
     0
278
    -2
288
     1
 68
     0
279
    -2
289
     1
 69
     0
  0
VISUALSTYLE
  5
2F
102
{ACAD_XDICTIONARY
360
4A3
102
}
102
{ACAD_REACTORS
330
29
102
}
330
29
100
AcDbVisualStyle
  2
2dWireframe
 70
     4
 71
     0
 72
     2
 73
     0
 90
        0
 40
-0.6
 41
-30.0
 62
     5
 63
     7
421
 16777215
 74
     1
 91
        4
 64
     7
 65
   257
 75
     1
175
     1
 42
1.0
 92
        0
 66
   257
 43
1.0
 76
     1
 77
     6
 78
     2
 67
     7
 79
     5
170
     0
171
     0
290
     0
174
     0
 93
        1
 44
0.0
173
     0
291
     0
 45
0.0
1001
ACAD
1000
AcDbSavedByObjectVersion
1070
     0
  0
VISUALSTYLE
  5
31
102
{ACAD_XDICTIONARY
360
4A7
102
}
102
{ACAD_REACTORS
330
29
102
}
330
29
100
AcDbVisualStyle
  2
3D Hidden
 70
     6
 71
     1
 72
     2
 73
     2
 90
        0
 40
-0.6
 41
-30.0
 62
     5
 63
     7
421
 16777215
 74
     2
 91
        2
 64
     7
 65
   257
 75
     2
175
     1
 42
179.0
 92
        0
 66
   257
 43
1.0
 76
     1
 77
     6
 78
     2
 67
     7
 79
     3
170
     0
171
     0
290
     0
174
     0
 93
        1
 44
0.0
173
     0
291
     0
 45
0.0
1001
ACAD
1000
AcDbSavedByObjectVersion
1070
     0
  0
VISUALSTYLE
  5
30
102
{ACAD_XDICTIONARY
360
4A5
102
}
102
{ACAD_REACTORS
330
29
102
}
330
29
100
AcDbVisualStyle
  2
3dWireframe
 70
     5
 71
     0
 72
     2
 73
     0
 90
        0
 40
-0.6
 41
-30.0
 62
     5
 63
     7
421
 16777215
 74
     1
 91
        4
 64
     7
 65
   257
 75
     1
175
     1
 42
1.0
 92
        0
 66
   257
 43
1.0
 76
     1
 77
     6
 78
     2
 67
     7
 79
     5
170
     0
171
     0
290
     0
174
     0
 93
        1
 44
0.0
173
     0
291
     0
 45
0.0
1001
ACAD
1000
AcDbSavedByObjectVersion
1070
     0
  0
VISUALSTYLE
  5
2E
102
{ACAD_XDICTIONARY
360
4A1
102
}
102
{ACAD_REACTORS
330
29
102
}
330
29
100
AcDbVisualStyle
  2
Basic
 70
     7
 71
     1
 72
     0
 73
     1
 90
        0
 40
-0.6
 41
-30.0
 62
     5
 63
     7
421
 16777215
 74
     0
 91
        4
 64
     7
 65
   257
 75
     1
175
     1
 42
1.0
 92
        8
 66
     7
 43
1.0
 76
     1
 77
     6
 78
     2
 67
     7
 79
     5
170
     0
171
     0
290
     0
174
     0
 93
        1
 44
0.0
173
     0
291
     1
 45
0.0
1001
ACAD
1000
AcDbSavedByObjectVersion
1070
     0
  0
VISUALSTYLE
  5
35
102
{ACAD_XDICTIONARY
360
4AF
102
}
102
{ACAD_REACTORS
330
29
102
}
330
29
100
AcDbVisualStyle
  2
Brighten
 70
    12
 71
     2
 72
     2
 73
     0
 90
        0
 40
-0.6
 41
-30.0
 62
     5
 63
     7
421
 16777215
 74
     1
 91
        4
 64
     7
 65
   257
 75
     1
175
     1
 42
1.0
 92
        8
 66
     7
 43
1.0
 76
     1
 77
     6
 78
     2
 67
     7
 79
     5
170
     0
171
     0
290
     0
174
     0
 93
        1
 44
50.0
173
     0
291
     1
 45
0.0
1001
ACAD
1000
AcDbSavedByObjectVersion
1070
     0
  0
VISUALSTYLE
  5
39
102
{ACAD_XDICTIONARY
360
4B7
102
}
102
{ACAD_REACTORS
330
29
102
}
330
29
100
AcDbVisualStyle
  2
ColorChange
 70
    16
 71
     2
 72
     2
 73
     3
 90
        0
 40
-0.6
 41
-30.0
 62
     5
 63
     8
421
  8421504
 74
     1
 91
        4
 64
     7
 65
   257
 75
     1
175
     1
 42
1.0
 92
        8
 66
     8
424
  8421504
 43
1.0
 76
     1
 77
     6
 78
     2
 67
     7
 79
     5
170
     0
171
     0
290
     0
174
     0
 93
        1
 44
0.0
173
     0
291
     1
 45
0.0
1001
ACAD
1000
AcDbSavedByObjectVersion
1070
     0
  0
VISUALSTYLE
  5
32
102
{ACAD_XDICTIONARY
360
4A9
102
}
102
{ACAD_REACTORS
330
29
102
}
330
29
100
AcDbVisualStyle
  2
Conceptual
 70
     9
 71
     3
 72
     2
 73
     0
 90
        0
 40
-0.6
 41
-30.0
 62
     5
 63
     7
421
 16777215
 74
     2
 91
        2
 64
     7
 65
   257
 75
     1
175
     1
 42
179.0
 92
        8
 66
     7
 43
1.0
 76
     1
 77
     6
 78
     2
 67
     7
 79
     3
170
     0
171
     0
290
     0
174
     0
 93
        1
 44
0.0
173
     0
291
     0
 45
0.0
1001
ACAD
1000
AcDbSavedByObjectVersion
1070
     0
  0
VISUALSTYLE
  5
34
102
{ACAD_XDICTIONARY
360
4AD
102
}
102
{ACAD_REACTORS
330
29
102
}
330
29
100
AcDbVisualStyle
  2
Dim
 70
    11
 71
     2
 72
     2
 73
     0
 90
        0
 40
-0.6
 41
-30.0
 62
     5
 63
     7
421
 16777215
 74
     1
 91
        4
 64
     7
 65
   257
 75
     1
175
     1
 42
1.0
 92
        8
 66
     7
 43
1.0
 76
     1
 77
     6
 78
     2
 67
     7
 79
     5
170
     0
171
     0
290
     0
174
     0
 93
        1
 44
-50.0
173
     0
291
     1
 45
0.0
1001
ACAD
1000
AcDbSavedByObjectVersion
1070
     0
  0
VISUALSTYLE
  5
3C
102
{ACAD_XDICTIONARY
360
4BD
102
}
102
{ACAD_REACTORS
330
29
102
}
330
29
100
AcDbVisualStyle
  2
EdgeColorOff
 70
    22
 71
     2
 72
     2
 73
     0
 90
        0
 40
-0.6
 41
-30.0
 62
     5
 63
     7
421
 16777215
 74
     1
 91
        4
 64
     7
 65
   257
 75
     1
175
     1
 42
1.0
 92
        8
 66
     7
 43
1.0
 76
     1
 77
     6
 78
     2
 67
     7
 79
     5
170
     0
171
     0
290
     0
174
     0
 93
        1
 44
0.0
173
     0
291
     1
 45
0.0
1001
ACAD
1000
AcDbSavedByObjectVersion
1070
     0
  0
VISUALSTYLE
  5
38
102
{ACAD_XDICTIONARY
360
4B5
102
}
102
{ACAD_REACTORS
330
29
102
}
330
29
100
AcDbVisualStyle
  2
Facepattern
 70
    15
 71
     2
 72
     2
 73
     0
 90
        0
 40
-0.6
 41
-30.0
 62
     5
 63
     7
421
 16777215
 74
     1
 91
        4
 64
     7
 65
   257
 75
     1
175
     1
 42
1.0
 92
        8
 66
     7
 43
1.0
 76
     1
 77
     6
 78
     2
 67
     7
 79
     5
170
     0
171
     0
290
     0
174
     0
 93
        1
 44
0.0
173
     0
291
     1
 45
0.0
1001
ACAD
1000
AcDbSavedByObjectVersion
1070
     0
  0
VISUALSTYLE
  5
2A
102
{ACAD_XDICTIONARY
360
499
102
}
102
{ACAD_REACTORS
330
29
102
}
330
29
100
AcDbVisualStyle
  2
Flat
 70
     0
 71
     2
 72
     1
 73
     1
 90
        2
 40
-0.6
 41
30.0
 62
     5
 63
     7
421
 16777215
 74
     0
 91
        4
 64
     7
 65
   257
 75
     1
175
     1
 42
1.0
 92
        8
 66
     7
 43
1.0
 76
     1
 77
     6
 78
     2
 67
     7
 79
     5
170
     0
171
     0
290
     0
174
     0
 93
       13
 44
0.0
173
     0
291
     1
 45
0.0
1001
ACAD
1000
AcDbSavedByObjectVersion
1070
     0
  0
VISUALSTYLE
  5
2B
102
{ACAD_XDICTIONARY
360
49B
102
}
102
{ACAD_REACTORS
330
29
102
}
330
29
100
AcDbVisualStyle
  2
FlatWithEdges
 70
     1
 71
     2
 72
     1
 73
     1
 90
        2
 40
-0.6
 41
30.0
 62
     5
 63
     7
421
 16777215
 74
     1
 91
        4
 64
     7
 65
   257
 75
     1
175
     1
 42
1.0
 92
        0
 66
   257
 43
1.0
 76
     1
 77
     6
 78
     2
 67
     7
 79
     5
170
     0
171
     0
290
     0
174
     0
 93
       13
 44
0.0
173
     0
291
     1
 45
0.0
1001
ACAD
1000
AcDbSavedByObjectVersion
1070
     0
  0
VISUALSTYLE
  5
2C
102
{ACAD_XDICTIONARY
360
49D
102
}
102
{ACAD_REACTORS
330
29
102
}
330
29
100
AcDbVisualStyle
  2
Gouraud
 70
     2
 71
     2
 72
     2
 73
     1
 90
        2
 40
-0.6
 41
30.0
 62
     5
 63
     7
421
 16777215
 74
     0
 91
        4
 64
     7
 65
   257
 75
     1
175
     1
 42
1.0
 92
        0
 66
     7
 43
1.0
 76
     1
 77
     6
 78
     2
 67
     7
 79
     5
170
     0
171
     0
290
     0
174
     0
 93
       13
 44
0.0
173
     0
291
     1
 45
0.0
1001
ACAD
1000
AcDbSavedByObjectVersion
1070
     0
  0
VISUALSTYLE
  5
2D
102
{ACAD_XDICTIONARY
360
49F
102
}
102
{ACAD_REACTORS
330
29
102
}
330
29
100
AcDbVisualStyle
  2
GouraudWithEdges
 70
     3
 71
     2
 72
     2
 73
     1
 90
        2
 40
-0.6
 41
30.0
 62
     5
 63
     7
421
 16777215
 74
     1
 91
        4
 64
     7
 65
   257
 75
     1
175
     1
 42
1.0
 92
        0
 66
   257
 43
1.0
 76
     1
 77
     6
 78
     2
 67
     7
 79
     5
170
     0
171
     0
290
     0
174
     0
 93
       13
 44
0.0
173
     0
291
     1
 45
0.0
1001
ACAD
1000
AcDbSavedByObjectVersion
1070
     0
  0
VISUALSTYLE
  5
3A
102
{ACAD_XDICTIONARY
360
4B9
102
}
102
{ACAD_REACTORS
330
29
102
}
330
29
100
AcDbVisualStyle
  2
JitterOff
 70
    20
 71
     2
 72
     2
 73
     0
 90
        0
 40
-0.6
 41
-30.0
 62
     5
 63
     7
421
 16777215
 74
     1
 91
        4
 64
     7
 65
   257
 75
     1
175
     1
 42
1.0
 92
       10
 66
     7
 43
1.0
 76
     1
 77
     6
 78
     2
 67
     7
 79
     5
170
     0
171
     0
290
     0
174
     0
 93
        1
 44
0.0
173
     0
291
     1
 45
0.0
1001
ACAD
1000
AcDbSavedByObjectVersion
1070
     0
  0
VISUALSTYLE
  5
37
102
{ACAD_XDICTIONARY
360
4B3
102
}
102
{ACAD_REACTORS
330
29
102
}
330
29
100
AcDbVisualStyle
  2
Linepattern
 70
    14
 71
     2
 72
     2
 73
     0
 90
        0
 40
-0.6
 41
-30.0
 62
     5
 63
     7
421
 16777215
 74
     1
 91
        4
 64
     7
 65
   257
 75
     7
175
     7
 42
1.0
 92
        8
 66
     7
 43
1.0
 76
     1
 77
     6
 78
     2
 67
     7
 79
     5
170
     0
171
     0
290
     0
174
     0
 93
        1
 44
0.0
173
     0
291
     1
 45
0.0
1001
ACAD
1000
AcDbSavedByObjectVersion
1070
     0
  0
VISUALSTYLE
  5
3B
102
{ACAD_XDICTIONARY
360
4BB
102
}
102
{ACAD_REACTORS
330
29
102
}
330
29
100
AcDbVisualStyle
  2
OverhangOff
 70
    21
 71
     2
 72
     2
 73
     0
 90
        0
 40
-0.6
 41
-30.0
 62
     5
 63
     7
421
 16777215
 74
     1
 91
        4
 64
     7
 65
   257
 75
     1
175
     1
 42
1.0
 92
        9
 66
     7
 43
1.0
 76
     1
 77
     6
 78
     2
 67
     7
 79
     5
170
     0
171
     0
290
     0
174
     0
 93
        1
 44
0.0
173
     0
291
     1
 45
0.0
1001
ACAD
1000
AcDbSavedByObjectVersion
1070
     0
  0
VISUALSTYLE
  5
33
102
{ACAD_XDICTIONARY
360
4AB
102
}
102
{ACAD_REACTORS
330
29
102
}
330
29
100
AcDbVisualStyle
  2
Realistic
 70
     8
 71
     2
 72
     2
 73
     0
 90
        0
 40
-0.6
 41
-30.0
 62
     5
 63
     7
421
 16777215
 74
     1
 91
        0
 64
     7
 65
   257
 75
     1
175
     1
 42
1.0
 92
        8
 66
     8
424
  7895160
 43
1.0
 76
     1
 77
     6
 78
     2
 67
     7
 79
     5
170
     0
171
     0
290
     0
174
     0
 93
       13
 44
0.0
173
     0
291
     0
 45
0.0
1001
ACAD
1000
AcDbSavedByObjectVersion
1070
     0
  0
VISUALSTYLE
  5
36
102
{ACAD_XDICTIONARY
360
4B1
102
}
102
{ACAD_REACTORS
330
29
102
}
330
29
100
AcDbVisualStyle
  2
Thicken
 70
    13
 71
     2
 72
     2
 73
     0
 90
        0
 40
-0.6
 41
-30.0
 62
     5
 63
     7
421
 16777215
 74
     1
 91
        4
 64
     7
 65
   257
 75
     1
175
     1
 42
1.0
 92
       12
 66
     7
 43
1.0
 76
     1
 77
     6
 78
     2
 67
     7
 79
     5
170
     0
171
     0
290
     0
174
     0
 93
        1
 44
0.0
173
     0
291
     1
 45
0.0
1001
ACAD
1000
AcDbSavedByObjectVersion
1070
     0
  0
DICTIONARYVAR
  5
418
102
{ACAD_REACTORS
330
414
102
}
330
414
100
DictionaryVariables
280
     0
  1
1:1
  0
DICTIONARYVAR
  5
416
102
{ACAD_REACTORS
330
414
102
}
330
414
100
DictionaryVariables
280
     0
  1
STANDARD
  0
DICTIONARYVAR
  5
415
102
{ACAD_REACTORS
330
414
102
}
330
414
100
DictionaryVariables
280
     0
  1
STANDARD
  0
DICTIONARYVAR
  5
41A
102
{ACAD_REACTORS
330
414
102
}
330
414
100
DictionaryVariables
280
     0
  1
0
  0
DICTIONARYVAR
  5
41B
102
{ACAD_REACTORS
330
414
102
}
330
414
100
DictionaryVariables
280
     0
  1
0
  0
DICTIONARYVAR
  5
419
102
{ACAD_REACTORS
330
414
102
}
330
414
100
DictionaryVariables
280
     0
  1
2
  0
DICTIONARYVAR
  5
417
102
{ACAD_REACTORS
330
414
102
}
330
414
100
DictionaryVariables
280
     0
  1
1
  0
DICTIONARYVAR
  5
41C
102
{ACAD_REACTORS
330
414
102
}
330
414
100
DictionaryVariables
280
     0
  1
2
  0
DICTIONARY
  5
1A
330
19
100
AcDbDictionary
280
     1
281
     1
  3
ACAD_XREC_ROUNDTRIP
360
497
  3
BUMPTILE
360
1C
  3
DIFFUSETILE
360
1B
  3
OPACITYTILE
360
1F
  3
REFLECTIONTILE
360
1E
  3
REFRACTIONTILE
360
20
  3
SPECULARTILE
360
1D
  0
DICTIONARY
  5
12
330
11
100
AcDbDictionary
280
     1
281
     1
  3
ACAD_XREC_ROUNDTRIP
360
496
  3
BUMPTILE
360
14
  3
DIFFUSETILE
360
13
  3
OPACITYTILE
360
17
  3
REFLECTIONTILE
360
16
  3
REFRACTIONTILE
360
18
  3
SPECULARTILE
360
15
  0
DICTIONARY
  5
22
330
21
100
AcDbDictionary
280
     1
281
     1
  3
ACAD_XREC_ROUNDTRIP
360
498
  3
BUMPTILE
360
24
  3
DIFFUSETILE
360
23
  3
OPACITYTILE
360
27
  3
REFLECTIONTILE
360
26
  3
REFRACTIONTILE
360
28
  3
SPECULARTILE
360
25
  0
DICTIONARY
  5
41D
330
70
100
AcDbDictionary
280
     1
281
     1
  3
ACAD_ROUNDTRIP_2008_TABLESTYLE_CELLSTYLEMAP
360
41E
  3
ACAD_XREC_ROUNDTRIP
360
4BF
  0
DICTIONARY
  5
4A3
330
2F
100
AcDbDictionary
280
     1
281
     1
  3
ACAD_XREC_ROUNDTRIP
360
4A4
  0
DICTIONARY
  5
4A7
330
31
100
AcDbDictionary
280
     1
281
     1
  3
ACAD_XREC_ROUNDTRIP
360
4A8
  0
DICTIONARY
  5
4A5
330
30
100
AcDbDictionary
280
     1
281
     1
  3
ACAD_XREC_ROUNDTRIP
360
4A6
  0
DICTIONARY
  5
4A1
330
2E
100
AcDbDictionary
280
     1
281
     1
  3
ACAD_XREC_ROUNDTRIP
360
4A2
  0
DICTIONARY
  5
4AF
330
35
100
AcDbDictionary
280
     1
281
     1
  3
ACAD_XREC_ROUNDTRIP
360
4B0
  0
DICTIONARY
  5
4B7
330
39
100
AcDbDictionary
280
     1
281
     1
  3
ACAD_XREC_ROUNDTRIP
360
4B8
  0
DICTIONARY
  5
4A9
330
32
100
AcDbDictionary
280
     1
281
     1
  3
ACAD_XREC_ROUNDTRIP
360
4AA
  0
DICTIONARY
  5
4AD
330
34
100
AcDbDictionary
280
     1
281
     1
  3
ACAD_XREC_ROUNDTRIP
360
4AE
  0
DICTIONARY
  5
4BD
330
3C
100
AcDbDictionary
280
     1
281
     1
  3
ACAD_XREC_ROUNDTRIP
360
4BE
  0
DICTIONARY
  5
4B5
330
38
100
AcDbDictionary
280
     1
281
     1
  3
ACAD_XREC_ROUNDTRIP
360
4B6
  0
DICTIONARY
  5
499
330
2A
100
AcDbDictionary
280
     1
281
     1
  3
ACAD_XREC_ROUNDTRIP
360
49A
  0
DICTIONARY
  5
49B
330
2B
100
AcDbDictionary
280
     1
281
     1
  3
ACAD_XREC_ROUNDTRIP
360
49C
  0
DICTIONARY
  5
49D
330
2C
100
AcDbDictionary
280
     1
281
     1
  3
ACAD_XREC_ROUNDTRIP
360
49E
  0
DICTIONARY
  5
49F
330
2D
100
AcDbDictionary
280
     1
281
     1
  3
ACAD_XREC_ROUNDTRIP
360
4A0
  0
DICTIONARY
  5
4B9
330
3A
100
AcDbDictionary
280
     1
281
     1
  3
ACAD_XREC_ROUNDTRIP
360
4BA
  0
DICTIONARY
  5
4B3
330
37
100
AcDbDictionary
280
     1
281
     1
  3
ACAD_XREC_ROUNDTRIP
360
4B4
  0
DICTIONARY
  5
4BB
330
3B
100
AcDbDictionary
280
     1
281
     1
  3
ACAD_XREC_ROUNDTRIP
360
4BC
  0
DICTIONARY
  5
4AB
330
33
100
AcDbDictionary
280
     1
281
     1
  3
ACAD_XREC_ROUNDTRIP
360
4AC
  0
DICTIONARY
  5
4B1
330
36
100
AcDbDictionary
280
     1
281
     1
  3
ACAD_XREC_ROUNDTRIP
360
4B2
  0
XRECORD
  5
497
102
{ACAD_REACTORS
330
1A
102
}
330
1A
100
AcDbXrecord
280
     1
102
MATERIAL
148
0.0
149
0.0
149
0.0
 93
        0
 94
      127
282
     0
 72
     0
 77
     0
171
     0
175
     0
179
     0
273
     0
  0
XRECORD
  5
1C
102
{ACAD_REACTORS
330
1A
102
}
330
1A
100
AcDbXrecord
280
     1
270
     1
271
     1
  0
XRECORD
  5
1B
102
{ACAD_REACTORS
330
1A
102
}
330
1A
100
AcDbXrecord
280
     1
270
     1
271
     1
  0
XRECORD
  5
1F
102
{ACAD_REACTORS
330
1A
102
}
330
1A
100
AcDbXrecord
280
     1
270
     1
271
     1
  0
XRECORD
  5
1E
102
{ACAD_REACTORS
330
1A
102
}
330
1A
100
AcDbXrecord
280
     1
270
     1
271
     1
  0
XRECORD
  5
20
102
{ACAD_REACTORS
330
1A
102
}
330
1A
100
AcDbXrecord
280
     1
270
     1
271
     1
  0
XRECORD
  5
1D
102
{ACAD_REACTORS
330
1A
102
}
330
1A
100
AcDbXrecord
280
     1
270
     1
271
     1
  0
XRECORD
  5
496
102
{ACAD_REACTORS
330
12
102
}
330
12
100
AcDbXrecord
280
     1
102
MATERIAL
148
0.0
149
0.0
149
0.0
 93
        0
 94
      127
282
     0
 72
     0
 77
     0
171
     0
175
     0
179
     0
273
     0
  0
XRECORD
  5
14
102
{ACAD_REACTORS
330
12
102
}
330
12
100
AcDbXrecord
280
     1
270
     1
271
     1
  0
XRECORD
  5
13
102
{ACAD_REACTORS
330
12
102
}
330
12
100
AcDbXrecord
280
     1
270
     1
271
     1
  0
XRECORD
  5
17
102
{ACAD_REACTORS
330
12
102
}
330
12
100
AcDbXrecord
280
     1
270
     1
271
     1
  0
XRECORD
  5
16
102
{ACAD_REACTORS
330
12
102
}
330
12
100
AcDbXrecord
280
     1
270
     1
271
     1
  0
XRECORD
  5
18
102
{ACAD_REACTORS
330
12
102
}
330
12
100
AcDbXrecord
280
     1
270
     1
271
     1
  0
XRECORD
  5
15
102
{ACAD_REACTORS
330
12
102
}
330
12
100
AcDbXrecord
280
     1
270
     1
271
     1
  0
XRECORD
  5
498
102
{ACAD_REACTORS
330
22
102
}
330
22
100
AcDbXrecord
280
     1
102
MATERIAL
148
0.0
149
0.0
149
0.0
 93
        0
 94
      127
282
     0
 72
     0
 77
     0
171
     0
175
     0
179
     0
273
     0
  0
XRECORD
  5
24
102
{ACAD_REACTORS
330
22
102
}
330
22
100
AcDbXrecord
280
     1
270
     1
271
     1
  0
XRECORD
  5
23
102
{ACAD_REACTORS
330
22
102
}
330
22
100
AcDbXrecord
280
     1
270
     1
271
     1
  0
XRECORD
  5
27
102
{ACAD_REACTORS
330
22
102
}
330
22
100
AcDbXrecord
280
     1
270
     1
271
     1
  0
XRECORD
  5
26
102
{ACAD_REACTORS
330
22
102
}
330
22
100
AcDbXrecord
280
     1
270
     1
271
     1
  0
XRECORD
  5
28
102
{ACAD_REACTORS
330
22
102
}
330
22
100
AcDbXrecord
280
     1
270
     1
271
     1
  0
XRECORD
  5
25
102
{ACAD_REACTORS
330
22
102
}
330
22
100
AcDbXrecord
280
     1
270
     1
271
     1
  0
CELLSTYLEMAP
  5
41E
102
{ACAD_REACTORS
330
41D
102
}
330
41D
100
AcDbCellStyleMap
 90
        3
300
CELLSTYLE
  1
TABLEFORMAT_BEGIN
 90
        5
170
     1
 91
        0
 92
    32768
 62
   257
 93
        1
300
CONTENTFORMAT
  1
CONTENTFORMAT_BEGIN
 90
        0
 91
        0
 92
      512
 93
        0
300

 40
0.0
140
1.0
 94
        5
 62
     0
340
60
144
0.25
309
CONTENTFORMAT_END
171
     0
 94
        0
309
TABLEFORMAT_END
  1
CELLSTYLE_BEGIN
 90
        1
 91
        1
300
_TITLE
309
CELLSTYLE_END
300
CELLSTYLE
  1
TABLEFORMAT_BEGIN
 90
        5
170
     1
 91
        0
 92
        0
 62
   257
 93
        1
300
CONTENTFORMAT
  1
CONTENTFORMAT_BEGIN
 90
        0
 91
        0
 92
      512
 93
        0
300

 40
0.0
140
1.0
 94
        5
 62
     0
340
60
144
0.18
309
CONTENTFORMAT_END
171
     0
 94
        0
309
TABLEFORMAT_END
  1
CELLSTYLE_BEGIN
 90
        2
 91
        1
300
_HEADER
309
CELLSTYLE_END
300
CELLSTYLE
  1
TABLEFORMAT_BEGIN
 90
        5
170
     1
 91
        0
 92
        0
 62
   257
 93
        1
300
CONTENTFORMAT
  1
CONTENTFORMAT_BEGIN
 90
        0
 91
        0
 92
      512
 93
        0
300

 40
0.0
140
1.0
 94
        2
 62
     0
340
60
144
0.18
309
CONTENTFORMAT_END
171
     0
 94
        0
309
TABLEFORMAT_END
  1
CELLSTYLE_BEGIN
 90
        3
 91
        2
300
_DATA
309
CELLSTYLE_END
  0
XRECORD
  5
4BF
102
{ACAD_REACTORS
330
41D
102
}
330
41D
100
AcDbXrecord
280
     1
102
ACAD_ROUNDTRIP_PRE2007_TABLESTYLE
 90
      512
 91
        0
  1

 92
      512
 93
        0
  2

 94
      512
 95
        0
  3

  0
XRECORD
  5
4A4
102
{ACAD_REACTORS
330
4A3
102
}
330
4A3
100
AcDbXrecord
280
     1
102
RTVSPropertyOp0
 70
     1
102
RTVSPropertyOp1
 70
     1
102
RTVSPropertyOp2
 70
     1
102
RTVSPropertyOp3
 70
     1
102
RTVSPropertyOp4
 70
     1
102
RTVSPropertyOp5
 70
     1
102
RTVSPropertyOp6
 70
     1
102
RTVSPropertyOp7
 70
     1
102
RTVSPropertyOp8
 70
     1
102
RTVSPropertyOp9
 70
     1
102
RTVSPropertyOp10
 70
     1
102
RTVSPropertyOp11
 70
     1
102
RTVSPropertyOp12
 70
     1
102
RTVSPropertyOp13
 70
     1
102
RTVSPropertyOp14
 70
     1
102
RTVSPropertyOp15
 70
     1
102
RTVSPropertyOp16
 70
     1
102
RTVSPropertyOp17
 70
     1
102
RTVSPropertyOp18
 70
     1
102
RTVSPropertyOp19
 70
     1
102
RTVSPropertyOp20
 70
     1
102
RTVSPropertyOp21
 70
     1
102
RTVSPropertyOp22
 70
     1
102
RTVSPropertyOp23
 70
     1
102
RTVSPropertyOp24
 70
     1
102
RTVSPropertyOp25
 70
     1
102
RTVSPropertyOp26
 70
     1
102
RTVSPropertyOp27
 70
     1
  0
XRECORD
  5
4A8
102
{ACAD_REACTORS
330
4A7
102
}
330
4A7
100
AcDbXrecord
280
     1
102
RTVSPropertyOp0
 70
     1
102
RTVSPropertyOp1
 70
     1
102
RTVSPropertyOp2
 70
     1
102
RTVSPropertyOp3
 70
     1
102
RTVSPropertyOp4
 70
     1
102
RTVSPropertyOp5
 70
     1
102
RTVSPropertyOp6
 70
     1
102
RTVSPropertyOp7
 70
     1
102
RTVSPropertyOp8
 70
     1
102
RTVSPropertyOp9
 70
     1
102
RTVSPropertyOp10
 70
     1
102
RTVSPropertyOp11
 70
     1
102
RTVSPropertyOp12
 70
     1
102
RTVSPropertyOp13
 70
     1
102
RTVSPropertyOp14
 70
     1
102
RTVSPropertyOp15
 70
     1
102
RTVSPropertyOp16
 70
     1
102
RTVSPropertyOp17
 70
     1
102
RTVSPropertyOp18
 70
     1
102
RTVSPropertyOp19
 70
     1
102
RTVSPropertyOp20
 70
     1
102
RTVSPropertyOp21
 70
     1
102
RTVSPropertyOp22
 70
     1
102
RTVSPropertyOp23
 70
     1
102
RTVSPropertyOp24
 70
     1
102
RTVSPropertyOp25
 70
     1
102
RTVSPropertyOp26
 70
     1
102
RTVSPropertyOp27
 70
     1
  0
XRECORD
  5
4A6
102
{ACAD_REACTORS
330
4A5
102
}
330
4A5
100
AcDbXrecord
280
     1
102
RTVSPropertyOp0
 70
     1
102
RTVSPropertyOp1
 70
     1
102
RTVSPropertyOp2
 70
     1
102
RTVSPropertyOp3
 70
     1
102
RTVSPropertyOp4
 70
     1
102
RTVSPropertyOp5
 70
     1
102
RTVSPropertyOp6
 70
     1
102
RTVSPropertyOp7
 70
     1
102
RTVSPropertyOp8
 70
     1
102
RTVSPropertyOp9
 70
     1
102
RTVSPropertyOp10
 70
     1
102
RTVSPropertyOp11
 70
     1
102
RTVSPropertyOp12
 70
     1
102
RTVSPropertyOp13
 70
     1
102
RTVSPropertyOp14
 70
     1
102
RTVSPropertyOp15
 70
     1
102
RTVSPropertyOp16
 70
     1
102
RTVSPropertyOp17
 70
     1
102
RTVSPropertyOp18
 70
     1
102
RTVSPropertyOp19
 70
     1
102
RTVSPropertyOp20
 70
     1
102
RTVSPropertyOp21
 70
     1
102
RTVSPropertyOp22
 70
     1
102
RTVSPropertyOp23
 70
     1
102
RTVSPropertyOp24
 70
     1
102
RTVSPropertyOp25
 70
     1
102
RTVSPropertyOp26
 70
     1
102
RTVSPropertyOp27
 70
     1
  0
XRECORD
  5
4A2
102
{ACAD_REACTORS
330
4A1
102
}
330
4A1
100
AcDbXrecord
280
     1
102
RTVSPropertyOp0
 70
     1
102
RTVSPropertyOp1
 70
     1
102
RTVSPropertyOp2
 70
     1
102
RTVSPropertyOp3
 70
     1
102
RTVSPropertyOp4
 70
     1
102
RTVSPropertyOp5
 70
     1
102
RTVSPropertyOp6
 70
     1
102
RTVSPropertyOp7
 70
     1
102
RTVSPropertyOp8
 70
     1
102
RTVSPropertyOp9
 70
     1
102
RTVSPropertyOp10
 70
     1
102
RTVSPropertyOp11
 70
     1
102
RTVSPropertyOp12
 70
     1
102
RTVSPropertyOp13
 70
     1
102
RTVSPropertyOp14
 70
     1
102
RTVSPropertyOp15
 70
     1
102
RTVSPropertyOp16
 70
     1
102
RTVSPropertyOp17
 70
     1
102
RTVSPropertyOp18
 70
     1
102
RTVSPropertyOp19
 70
     1
102
RTVSPropertyOp20
 70
     1
102
RTVSPropertyOp21
 70
     1
102
RTVSPropertyOp22
 70
     1
102
RTVSPropertyOp23
 70
     1
102
RTVSPropertyOp24
 70
     1
102
RTVSPropertyOp25
 70
     1
102
RTVSPropertyOp26
 70
     1
102
RTVSPropertyOp27
 70
     1
  0
XRECORD
  5
4B0
102
{ACAD_REACTORS
330
4AF
102
}
330
4AF
100
AcDbXrecord
280
     1
102
RTVSPropertyOp0
 70
     1
102
RTVSPropertyOp1
 70
     1
102
RTVSPropertyOp2
 70
     1
102
RTVSPropertyOp3
 70
     1
102
RTVSPropertyOp4
 70
     1
102
RTVSPropertyOp5
 70
     1
102
RTVSPropertyOp6
 70
     1
102
RTVSPropertyOp7
 70
     1
102
RTVSPropertyOp8
 70
     1
102
RTVSPropertyOp9
 70
     1
102
RTVSPropertyOp10
 70
     1
102
RTVSPropertyOp11
 70
     1
102
RTVSPropertyOp12
 70
     1
102
RTVSPropertyOp13
 70
     1
102
RTVSPropertyOp14
 70
     1
102
RTVSPropertyOp15
 70
     1
102
RTVSPropertyOp16
 70
     1
102
RTVSPropertyOp17
 70
     1
102
RTVSPropertyOp18
 70
     1
102
RTVSPropertyOp19
 70
     1
102
RTVSPropertyOp20
 70
     1
102
RTVSPropertyOp21
 70
     1
102
RTVSPropertyOp22
 70
     1
102
RTVSPropertyOp23
 70
     1
102
RTVSPropertyOp24
 70
     1
102
RTVSPropertyOp25
 70
     1
102
RTVSPropertyOp26
 70
     1
102
RTVSPropertyOp27
 70
     1
  0
XRECORD
  5
4B8
102
{ACAD_REACTORS
330
4B7
102
}
330
4B7
100
AcDbXrecord
280
     1
102
RTVSPropertyOp0
 70
     1
102
RTVSPropertyOp1
 70
     1
102
RTVSPropertyOp2
 70
     1
102
RTVSPropertyOp3
 70
     1
102
RTVSPropertyOp4
 70
     1
102
RTVSPropertyOp5
 70
     1
102
RTVSPropertyOp6
 70
     1
102
RTVSPropertyOp7
 70
     1
102
RTVSPropertyOp8
 70
     1
102
RTVSPropertyOp9
 70
     1
102
RTVSPropertyOp10
 70
     1
102
RTVSPropertyOp11
 70
     1
102
RTVSPropertyOp12
 70
     1
102
RTVSPropertyOp13
 70
     1
102
RTVSPropertyOp14
 70
     1
102
RTVSPropertyOp15
 70
     1
102
RTVSPropertyOp16
 70
     1
102
RTVSPropertyOp17
 70
     1
102
RTVSPropertyOp18
 70
     1
102
RTVSPropertyOp19
 70
     1
102
RTVSPropertyOp20
 70
     1
102
RTVSPropertyOp21
 70
     1
102
RTVSPropertyOp22
 70
     1
102
RTVSPropertyOp23
 70
     1
102
RTVSPropertyOp24
 70
     1
102
RTVSPropertyOp25
 70
     1
102
RTVSPropertyOp26
 70
     1
102
RTVSPropertyOp27
 70
     1
  0
XRECORD
  5
4AA
102
{ACAD_REACTORS
330
4A9
102
}
330
4A9
100
AcDbXrecord
280
     1
102
RTVSPropertyOp0
 70
     1
102
RTVSPropertyOp1
 70
     1
102
RTVSPropertyOp2
 70
     1
102
RTVSPropertyOp3
 70
     1
102
RTVSPropertyOp4
 70
     1
102
RTVSPropertyOp5
 70
     1
102
RTVSPropertyOp6
 70
     1
102
RTVSPropertyOp7
 70
     1
102
RTVSPropertyOp8
 70
     1
102
RTVSPropertyOp9
 70
     1
102
RTVSPropertyOp10
 70
     1
102
RTVSPropertyOp11
 70
     1
102
RTVSPropertyOp12
 70
     1
102
RTVSPropertyOp13
 70
     1
102
RTVSPropertyOp14
 70
     1
102
RTVSPropertyOp15
 70
     1
102
RTVSPropertyOp16
 70
     1
102
RTVSPropertyOp17
 70
     1
102
RTVSPropertyOp18
 70
     1
102
RTVSPropertyOp19
 70
     1
102
RTVSPropertyOp20
 70
     1
102
RTVSPropertyOp21
 70
     1
102
RTVSPropertyOp22
 70
     1
102
RTVSPropertyOp23
 70
     1
102
RTVSPropertyOp24
 70
     1
102
RTVSPropertyOp25
 70
     1
102
RTVSPropertyOp26
 70
     1
102
RTVSPropertyOp27
 70
     1
  0
XRECORD
  5
4AE
102
{ACAD_REACTORS
330
4AD
102
}
330
4AD
100
AcDbXrecord
280
     1
102
RTVSPropertyOp0
 70
     1
102
RTVSPropertyOp1
 70
     1
102
RTVSPropertyOp2
 70
     1
102
RTVSPropertyOp3
 70
     1
102
RTVSPropertyOp4
 70
     1
102
RTVSPropertyOp5
 70
     1
102
RTVSPropertyOp6
 70
     1
102
RTVSPropertyOp7
 70
     1
102
RTVSPropertyOp8
 70
     1
102
RTVSPropertyOp9
 70
     1
102
RTVSPropertyOp10
 70
     1
102
RTVSPropertyOp11
 70
     1
102
RTVSPropertyOp12
 70
     1
102
RTVSPropertyOp13
 70
     1
102
RTVSPropertyOp14
 70
     1
102
RTVSPropertyOp15
 70
     1
102
RTVSPropertyOp16
 70
     1
102
RTVSPropertyOp17
 70
     1
102
RTVSPropertyOp18
 70
     1
102
RTVSPropertyOp19
 70
     1
102
RTVSPropertyOp20
 70
     1
102
RTVSPropertyOp21
 70
     1
102
RTVSPropertyOp22
 70
     1
102
RTVSPropertyOp23
 70
     1
102
RTVSPropertyOp24
 70
     1
102
RTVSPropertyOp25
 70
     1
102
RTVSPropertyOp26
 70
     1
102
RTVSPropertyOp27
 70
     1
  0
XRECORD
  5
4BE
102
{ACAD_REACTORS
330
4BD
102
}
330
4BD
100
AcDbXrecord
280
     1
102
RTVSPropertyOp0
 70
     0
102
RTVSPropertyOp1
 70
     0
102
RTVSPropertyOp2
 70
     0
102
RTVSPropertyOp3
 70
     0
102
RTVSPropertyOp4
 70
     0
102
RTVSPropertyOp5
 70
     0
102
RTVSPropertyOp6
 70
     0
102
RTVSPropertyOp7
 70
     0
102
RTVSPropertyOp8
 70
     0
102
RTVSPropertyOp9
 70
     0
102
RTVSPropertyOp10
 70
     0
102
RTVSPropertyOp11
 70
     0
102
RTVSPropertyOp12
 70
     0
102
RTVSPropertyOp13
 70
     0
102
RTVSPropertyOp14
 70
     2
102
RTVSPropertyOp15
 70
     0
102
RTVSPropertyOp16
 70
     0
102
RTVSPropertyOp17
 70
     0
102
RTVSPropertyOp18
 70
     0
102
RTVSPropertyOp19
 70
     0
102
RTVSPropertyOp20
 70
     0
102
RTVSPropertyOp21
 70
     0
102
RTVSPropertyOp22
 70
     0
102
RTVSPropertyOp23
 70
     0
102
RTVSPropertyOp24
 70
     0
102
RTVSPropertyOp25
 70
     0
102
RTVSPropertyOp26
 70
     0
102
RTVSPropertyOp27
 70
     0
  0
XRECORD
  5
4B6
102
{ACAD_REACTORS
330
4B5
102
}
330
4B5
100
AcDbXrecord
280
     1
102
RTVSPropertyOp0
 70
     1
102
RTVSPropertyOp1
 70
     1
102
RTVSPropertyOp2
 70
     1
102
RTVSPropertyOp3
 70
     1
102
RTVSPropertyOp4
 70
     1
102
RTVSPropertyOp5
 70
     1
102
RTVSPropertyOp6
 70
     1
102
RTVSPropertyOp7
 70
     1
102
RTVSPropertyOp8
 70
     1
102
RTVSPropertyOp9
 70
     1
102
RTVSPropertyOp10
 70
     1
102
RTVSPropertyOp11
 70
     1
102
RTVSPropertyOp12
 70
     1
102
RTVSPropertyOp13
 70
     1
102
RTVSPropertyOp14
 70
     1
102
RTVSPropertyOp15
 70
     1
102
RTVSPropertyOp16
 70
     1
102
RTVSPropertyOp17
 70
     1
102
RTVSPropertyOp18
 70
     1
102
RTVSPropertyOp19
 70
     1
102
RTVSPropertyOp20
 70
     1
102
RTVSPropertyOp21
 70
     1
102
RTVSPropertyOp22
 70
     1
102
RTVSPropertyOp23
 70
     1
102
RTVSPropertyOp24
 70
     1
102
RTVSPropertyOp25
 70
     1
102
RTVSPropertyOp26
 70
     1
102
RTVSPropertyOp27
 70
     1
  0
XRECORD
  5
49A
102
{ACAD_REACTORS
330
499
102
}
330
499
100
AcDbXrecord
280
     1
102
RTVSPropertyOp0
 70
     1
102
RTVSPropertyOp1
 70
     1
102
RTVSPropertyOp2
 70
     1
102
RTVSPropertyOp3
 70
     1
102
RTVSPropertyOp4
 70
     1
102
RTVSPropertyOp5
 70
     1
102
RTVSPropertyOp6
 70
     1
102
RTVSPropertyOp7
 70
     1
102
RTVSPropertyOp8
 70
     1
102
RTVSPropertyOp9
 70
     1
102
RTVSPropertyOp10
 70
     1
102
RTVSPropertyOp11
 70
     1
102
RTVSPropertyOp12
 70
     1
102
RTVSPropertyOp13
 70
     1
102
RTVSPropertyOp14
 70
     1
102
RTVSPropertyOp15
 70
     1
102
RTVSPropertyOp16
 70
     1
102
RTVSPropertyOp17
 70
     1
102
RTVSPropertyOp18
 70
     1
102
RTVSPropertyOp19
 70
     1
102
RTVSPropertyOp20
 70
     1
102
RTVSPropertyOp21
 70
     1
102
RTVSPropertyOp22
 70
     1
102
RTVSPropertyOp23
 70
     1
102
RTVSPropertyOp24
 70
     1
102
RTVSPropertyOp25
 70
     1
102
RTVSPropertyOp26
 70
     1
102
RTVSPropertyOp27
 70
     1
  0
XRECORD
  5
49C
102
{ACAD_REACTORS
330
49B
102
}
330
49B
100
AcDbXrecord
280
     1
102
RTVSPropertyOp0
 70
     1
102
RTVSPropertyOp1
 70
     1
102
RTVSPropertyOp2
 70
     1
102
RTVSPropertyOp3
 70
     1
102
RTVSPropertyOp4
 70
     1
102
RTVSPropertyOp5
 70
     1
102
RTVSPropertyOp6
 70
     1
102
RTVSPropertyOp7
 70
     1
102
RTVSPropertyOp8
 70
     1
102
RTVSPropertyOp9
 70
     1
102
RTVSPropertyOp10
 70
     1
102
RTVSPropertyOp11
 70
     1
102
RTVSPropertyOp12
 70
     1
102
RTVSPropertyOp13
 70
     1
102
RTVSPropertyOp14
 70
     1
102
RTVSPropertyOp15
 70
     1
102
RTVSPropertyOp16
 70
     1
102
RTVSPropertyOp17
 70
     1
102
RTVSPropertyOp18
 70
     1
102
RTVSPropertyOp19
 70
     1
102
RTVSPropertyOp20
 70
     1
102
RTVSPropertyOp21
 70
     1
102
RTVSPropertyOp22
 70
     1
102
RTVSPropertyOp23
 70
     1
102
RTVSPropertyOp24
 70
     1
102
RTVSPropertyOp25
 70
     1
102
RTVSPropertyOp26
 70
     1
102
RTVSPropertyOp27
 70
     1
  0
XRECORD
  5
49E
102
{ACAD_REACTORS
330
49D
102
}
330
49D
100
AcDbXrecord
280
     1
102
RTVSPropertyOp0
 70
     1
102
RTVSPropertyOp1
 70
     1
102
RTVSPropertyOp2
 70
     1
102
RTVSPropertyOp3
 70
     1
102
RTVSPropertyOp4
 70
     1
102
RTVSPropertyOp5
 70
     1
102
RTVSPropertyOp6
 70
     1
102
RTVSPropertyOp7
 70
     1
102
RTVSPropertyOp8
 70
     1
102
RTVSPropertyOp9
 70
     1
102
RTVSPropertyOp10
 70
     1
102
RTVSPropertyOp11
 70
     1
102
RTVSPropertyOp12
 70
     1
102
RTVSPropertyOp13
 70
     1
102
RTVSPropertyOp14
 70
     1
102
RTVSPropertyOp15
 70
     1
102
RTVSPropertyOp16
 70
     1
102
RTVSPropertyOp17
 70
     1
102
RTVSPropertyOp18
 70
     1
102
RTVSPropertyOp19
 70
     1
102
RTVSPropertyOp20
 70
     1
102
RTVSPropertyOp21
 70
     1
102
RTVSPropertyOp22
 70
     1
102
RTVSPropertyOp23
 70
     1
102
RTVSPropertyOp24
 70
     1
102
RTVSPropertyOp25
 70
     1
102
RTVSPropertyOp26
 70
     1
102
RTVSPropertyOp27
 70
     1
  0
XRECORD
  5
4A0
102
{ACAD_REACTORS
330
49F
102
}
330
49F
100
AcDbXrecord
280
     1
102
RTVSPropertyOp0
 70
     1
102
RTVSPropertyOp1
 70
     1
102
RTVSPropertyOp2
 70
     1
102
RTVSPropertyOp3
 70
     1
102
RTVSPropertyOp4
 70
     1
102
RTVSPropertyOp5
 70
     1
102
RTVSPropertyOp6
 70
     1
102
RTVSPropertyOp7
 70
     1
102
RTVSPropertyOp8
 70
     1
102
RTVSPropertyOp9
 70
     1
102
RTVSPropertyOp10
 70
     1
102
RTVSPropertyOp11
 70
     1
102
RTVSPropertyOp12
 70
     1
102
RTVSPropertyOp13
 70
     1
102
RTVSPropertyOp14
 70
     1
102
RTVSPropertyOp15
 70
     1
102
RTVSPropertyOp16
 70
     1
102
RTVSPropertyOp17
 70
     1
102
RTVSPropertyOp18
 70
     1
102
RTVSPropertyOp19
 70
     1
102
RTVSPropertyOp20
 70
     1
102
RTVSPropertyOp21
 70
     1
102
RTVSPropertyOp22
 70
     1
102
RTVSPropertyOp23
 70
     1
102
RTVSPropertyOp24
 70
     1
102
RTVSPropertyOp25
 70
     1
102
RTVSPropertyOp26
 70
     1
102
RTVSPropertyOp27
 70
     1
  0
XRECORD
  5
4BA
102
{ACAD_REACTORS
330
4B9
102
}
330
4B9
100
AcDbXrecord
280
     1
102
RTVSPropertyOp0
 70
     0
102
RTVSPropertyOp1
 70
     0
102
RTVSPropertyOp2
 70
     0
102
RTVSPropertyOp3
 70
     0
102
RTVSPropertyOp4
 70
     0
102
RTVSPropertyOp5
 70
     0
102
RTVSPropertyOp6
 70
     0
102
RTVSPropertyOp7
 70
     0
102
RTVSPropertyOp8
 70
     0
102
RTVSPropertyOp9
 70
     0
102
RTVSPropertyOp10
 70
     0
102
RTVSPropertyOp11
 70
     0
102
RTVSPropertyOp12
 70
     0
102
RTVSPropertyOp13
 70
     0
102
RTVSPropertyOp14
 70
     2
102
RTVSPropertyOp15
 70
     0
102
RTVSPropertyOp16
 70
     0
102
RTVSPropertyOp17
 70
     0
102
RTVSPropertyOp18
 70
     0
102
RTVSPropertyOp19
 70
     0
102
RTVSPropertyOp20
 70
     0
102
RTVSPropertyOp21
 70
     0
102
RTVSPropertyOp22
 70
     0
102
RTVSPropertyOp23
 70
     0
102
RTVSPropertyOp24
 70
     0
102
RTVSPropertyOp25
 70
     0
102
RTVSPropertyOp26
 70
     0
102
RTVSPropertyOp27
 70
     0
  0
XRECORD
  5
4B4
102
{ACAD_REACTORS
330
4B3
102
}
330
4B3
100
AcDbXrecord
280
     1
102
RTVSPropertyOp0
 70
     1
102
RTVSPropertyOp1
 70
     1
102
RTVSPropertyOp2
 70
     1
102
RTVSPropertyOp3
 70
     1
102
RTVSPropertyOp4
 70
     1
102
RTVSPropertyOp5
 70
     1
102
RTVSPropertyOp6
 70
     1
102
RTVSPropertyOp7
 70
     1
102
RTVSPropertyOp8
 70
     1
102
RTVSPropertyOp9
 70
     1
102
RTVSPropertyOp10
 70
     1
102
RTVSPropertyOp11
 70
     1
102
RTVSPropertyOp12
 70
     1
102
RTVSPropertyOp13
 70
     1
102
RTVSPropertyOp14
 70
     1
102
RTVSPropertyOp15
 70
     1
102
RTVSPropertyOp16
 70
     1
102
RTVSPropertyOp17
 70
     1
102
RTVSPropertyOp18
 70
     1
102
RTVSPropertyOp19
 70
     1
102
RTVSPropertyOp20
 70
     1
102
RTVSPropertyOp21
 70
     1
102
RTVSPropertyOp22
 70
     1
102
RTVSPropertyOp23
 70
     1
102
RTVSPropertyOp24
 70
     1
102
RTVSPropertyOp25
 70
     1
102
RTVSPropertyOp26
 70
     1
102
RTVSPropertyOp27
 70
     1
  0
XRECORD
  5
4BC
102
{ACAD_REACTORS
330
4BB
102
}
330
4BB
100
AcDbXrecord
280
     1
102
RTVSPropertyOp0
 70
     0
102
RTVSPropertyOp1
 70
     0
102
RTVSPropertyOp2
 70
     0
102
RTVSPropertyOp3
 70
     0
102
RTVSPropertyOp4
 70
     0
102
RTVSPropertyOp5
 70
     0
102
RTVSPropertyOp6
 70
     0
102
RTVSPropertyOp7
 70
     0
102
RTVSPropertyOp8
 70
     0
102
RTVSPropertyOp9
 70
     0
102
RTVSPropertyOp10
 70
     0
102
RTVSPropertyOp11
 70
     0
102
RTVSPropertyOp12
 70
     0
102
RTVSPropertyOp13
 70
     0
102
RTVSPropertyOp14
 70
     2
102
RTVSPropertyOp15
 70
     0
102
RTVSPropertyOp16
 70
     0
102
RTVSPropertyOp17
 70
     0
102
RTVSPropertyOp18
 70
     0
102
RTVSPropertyOp19
 70
     0
102
RTVSPropertyOp20
 70
     0
102
RTVSPropertyOp21
 70
     0
102
RTVSPropertyOp22
 70
     0
102
RTVSPropertyOp23
 70
     0
102
RTVSPropertyOp24
 70
     0
102
RTVSPropertyOp25
 70
     0
102
RTVSPropertyOp26
 70
     0
102
RTVSPropertyOp27
 70
     0
  0
XRECORD
  5
4AC
102
{ACAD_REACTORS
330
4AB
102
}
330
4AB
100
AcDbXrecord
280
     1
102
RTVSPropertyOp0
 70
     1
102
RTVSPropertyOp1
 70
     1
102
RTVSPropertyOp2
 70
     1
102
RTVSPropertyOp3
 70
     1
102
RTVSPropertyOp4
 70
     1
102
RTVSPropertyOp5
 70
     1
102
RTVSPropertyOp6
 70
     1
102
RTVSPropertyOp7
 70
     1
102
RTVSPropertyOp8
 70
     1
102
RTVSPropertyOp9
 70
     1
102
RTVSPropertyOp10
 70
     1
102
RTVSPropertyOp11
 70
     1
102
RTVSPropertyOp12
 70
     1
102
RTVSPropertyOp13
 70
     1
102
RTVSPropertyOp14
 70
     1
102
RTVSPropertyOp15
 70
     1
102
RTVSPropertyOp16
 70
     1
102
RTVSPropertyOp17
 70
     1
102
RTVSPropertyOp18
 70
     1
102
RTVSPropertyOp19
 70
     1
102
RTVSPropertyOp20
 70
     1
102
RTVSPropertyOp21
 70
     1
102
RTVSPropertyOp22
 70
     1
102
RTVSPropertyOp23
 70
     1
102
RTVSPropertyOp24
 70
     1
102
RTVSPropertyOp25
 70
     1
102
RTVSPropertyOp26
 70
     1
102
RTVSPropertyOp27
 70
     1
  0
XRECORD
  5
4B2
102
{ACAD_REACTORS
330
4B1
102
}
330
4B1
100
AcDbXrecord
280
     1
102
RTVSPropertyOp0
 70
     1
102
RTVSPropertyOp1
 70
     1
102
RTVSPropertyOp2
 70
     1
102
RTVSPropertyOp3
 70
     1
102
RTVSPropertyOp4
 70
     1
102
RTVSPropertyOp5
 70
     1
102
RTVSPropertyOp6
 70
     1
102
RTVSPropertyOp7
 70
     1
102
RTVSPropertyOp8
 70
     1
102
RTVSPropertyOp9
 70
     1
102
RTVSPropertyOp10
 70
     1
102
RTVSPropertyOp11
 70
     1
102
RTVSPropertyOp12
 70
     1
102
RTVSPropertyOp13
 70
     1
102
RTVSPropertyOp14
 70
     1
102
RTVSPropertyOp15
 70
     1
102
RTVSPropertyOp16
 70
     1
102
RTVSPropertyOp17
 70
     1
102
RTVSPropertyOp18
 70
     1
102
RTVSPropertyOp19
 70
     1
102
RTVSPropertyOp20
 70
     1
102
RTVSPropertyOp21
 70
     1
102
RTVSPropertyOp22
 70
     1
102
RTVSPropertyOp23
 70
     1
102
RTVSPropertyOp24
 70
     1
102
RTVSPropertyOp25
 70
     1
102
RTVSPropertyOp26
 70
     1
102
RTVSPropertyOp27
 70
     1
  0
ENDSEC
  0
EOF
